PrimaNota.ru - самый крупный в мире бесплатный архив песенных текстов, аккордов, табулатур и нот


Rob Zombie - Man Without Fear - текст песни, таба, видео

Регистрация Запомнить меня
Войти через:  Facebook Google Twitter Vk Yandex Mail.ru

Rob Zombie - Man Without Fear - текст песни, таба, видео

Печатать
Просмотров: 130
Band- Rob Zombie
Song- The Man Without Fear

Tuning: Drop B (B F# B E G# C#)


   -Intro
C#|-------------------------|---------|--------||
G#|-------------------------|---------|--------||
 E|-------------------------|---------|--------||
 B|-1-0-0-1-0-0-1-0-0-1-0-0-|-4-4-4-4-|-4-4----||
F#|-------------------------|---------|-----3-3||
 B|-------------------------|---------|--------||

C#|--------------------------------------------||
G#|--------------------------------------------||
 E|--------------------------------------------||
 B|-1-0-0-1-0-0-1-0-0-1-0-0-|-0-4-4-4-|-4-4-5--||
F#|-1-0-0-1-0-0-1-0-0-1-0-0-|-0-4-4-4-|-4-4-3--||
 B|-1-0-0-1-0-0-1-0-0-1-0-0-|-0-4-4-4-|-4-4----||
  |
C#|-------------------------|---------|--------||
G#|-------------------------|---------|--------||
 E|-------------------------|---------|--------||
 B|-1-0-0-1-0-0-1-0-0-1-0-0-|-4-4-4-4-|-4-4----||
F#|-------------------------|---------|-----3-3||
 B|-------------------------|---------|--------||

    -Verse
C#|---------|-----------------------------------||
G#|---------|-----------------------------------||
 E|---------|-----------------------------------||
 B|---------|-----------------------------------||
F#|---------|-----------------------------------||
 B|10101012-|-0-0-0-0-3-3-3-5-5-5-0-0-0-0-0-6-6-||
    . . .     . . . . . . . . . . . . . . . . .
C#|-----------------------------------||
G#|-----------------------------------||
 E|-----------------------------------||  *Dont play second
 B|-----------------------------------||   time
F#|-----------------------------------||
 B|-0-0-0-0-3-3-3-5-5-5-0-0-0-0-1-1-1-||
    . . . . . . . . . . . . .(. . . .)*

   -Pre-Chorus
C#|------------------------------------||
G#|------------------------------------||
 E|------------------------------------||
 B|-0--3--5--0--0-6-6-0--3--5--0--0-1-1||
F#|-0--3--5--0--0-6-6-0--3--5--0--0-1-1||
 B|-0--3--5--0--0-6-6-0--3--5--0--0-1-1||

   -Chorus
C#|--------------------------------------------||
G#|--------------------------------------------||
 E|--------------------------------------------||
 B|-1-0-0-1-0-0-1-0-0-1-0-0-|-0-4-4-4-|-4-4-5--||
F#|-1-0-0-1-0-0-1-0-0-1-0-0-|-0-4-4-4-|-4-4-3--||
 B|-1-0-0-1-0-0-1-0-0-1-0-0-|-0-4-4-4-|-4-4----||
  |
C#|-------------------------|---------|--------||
G#|-------------------------|---------|--------||
 E|-------------------------|---------|--------||
 B|-1-0-0-1-0-0-1-0-0-1-0-0-|-4-4-4-4-|-4-4----||
F#|-------------------------|---------|-----3-3||
 B|-------------------------|---------|--------||

   -Under Solo      -2 (depress trem)
C#|---------------------||
G#|---------------------||
 E|---------------------||
 B|0-1-4~-------0-1-----||
F#|-----------------3\--||
 B|-------------------\-||
                       \
   -Solo
C#|17-20-----18-17-14-15-14-----17-20----||
G#|------20-----------------15--------20-||
 E|--------------------------------------||
 B|--------------------------------------||
F#|--------------------------------------||
 B|--------------------------------------||

C#|------------------------------------------------------22\||
G#|-13-15-16-15-15h16p15p13h13--16p15p13h15--16p15p13h15----||
 E|---------------------------------------------------------||
 B|---------------------------------------------------------||
F#|---------------------------------------------------------||
 B|---------------------------------------------------------||

   -Bridge
C#|-----------------------------------||
G#|-----------------------------------||
 E|-----------------------------------||
 B|-0-3-5-0--0-6-6-6-0-3-5-0--0-1-1-1-||
F#|-----------------------------------||
 B|-----------------------------------||

C#|--------------------------||
G#|--------------------------||
 E|--------------------------||
 B|-0-3-5-0--0-6-6-6-0-3-5-0-||
F#|--------------------------||
 B|--------------------------||
  |
C#|--------------------------||
G#|--------------------------||
 E|--------------------------||
 B|--------------------------||
F#|--------------------------||
 B|-0-3-5-0--0-6-6-6-0-3-5-0-||

   -Outro
C#|------------------------||
G#|------------------------||
 E|------------------------||
 B|-0-3-5-0-0-6-0-3-5-0-0-0||
F#|-0-3-5-0-0-6-0-3-5-0-0-0||
 B|-0-3-5-0-0-6-0-3-5-0-0-0||

C#|---------------------------------------------------------||
G#|---------------------------------------------------------||
 E|---------------------------------------------------------||
 B|-0-00-3-00-5-00-0-00-0-6-6-6-0-00-3-00-5-00-0-00-0-1-1-1-||
F#|-0-00-3-00-5-00-0-00-0-6-6-6-0-00-3-00-5-00-0-00-0-1-1-1-||
 B|-0-00-3-00-5-00-0-00-0-6-6-6-0-00-3-00-5-00-0-00-0-1-1-1-||
      ..   ..   ..   ..           ..   ..   ..   ..

Legend:
p - Pull-Off
h - Hammer On
\ - Slide Down
. - Palm-Mute
Добавлено: 07.07.2013
Другие материалы по этой песне:
  • Аккорды и текст

Страница создана 07.07.2013
http://primanota.ru/rob-zombie/man-without-fear-chords.htm
Привет, Гость.
Предлагаем пройти революционный курс по гитаре.
Подарок от PrimaNota.Ru, забирай!