PrimaNota.ru - самый крупный в мире бесплатный архив песенных текстов, аккордов, табулатур и нот


Rob Zombie - Foxy Foxy - текст песни, таба, видео

Регистрация Запомнить меня
Войти через:  Facebook Google Twitter Vk Yandex Mail.ru

Rob Zombie - Foxy Foxy - текст песни, таба, видео

Печатать
Просмотров: 281
Уроки эстрадного вокала в Санкт-Петербурге
Авторы музыки: Scott Humphrey, Rob Zombie
Авторы текста: Rob Zombie
-----------------------------------------------------------------------------
			     FOXY FOXY - Rob Zombie
-----------------------------------------------------------------------------
Tabbed by: Slinky McDougall
Tuning: Standard

Intro  
   + +   + +   + +   + +    1st ending (2nd skips to main riff once)
e||-----------------------|--------------------------||
B||-3-3---3-3---3-3---3-3-|--------------------------||
G||-3-3---3-3---3-3---3-3-|--------------------------||
D||-3-3---3-3---3-3---3-3-|--------------------------||
A||-----------------------|--------------------------||
E||-----------------------|-x-3-x-2----x-2---2-x-2---||

Main Riff
e|----------------------|
B|----------------------|
G|----------------------|
D|----------------------|
A|----------------------|
E|-3-2-xxx-2-x-2-xx-2/3-|

Pre-Chorus (synth arranged for guitar)
e|------------------------|
B|------------------------|
G|----------------2-------|
D|-----2---4----------4---|
A|-4-----------4----------|
E|------------------------|

Guitar
e|----------------------|
B|----------------------|
G|----------------------|
D|-5-4-xxx-4-x-4-xx-4/5-|
A|-5-4-xxx-4-x-4-xx-4/5-|
E|-3-2-xxx-2-x-2-xx-2/3-|

Chorus                  
e|------------------------------------|
B|------------------------------------|
G|------------------------------------|
D|-4----2----4----4-------------------|
A|-4----2----4----4-------------------|
E|-2----0----2----2----2--2--2-x-2----|
                        ^(w/ Wah)^

Full Intro
Main Riff x 12
Prechorus x 4
Chorus x 4
Pause (drums and synth)
Main Riff x 8
Prechorus x 4
Chorus x 4
Main Riff x 6
Prechorus x 4
Chorus x 4
Prechorus/Chorus* x 4

* = The Keyboard plays the synth Prechorus, Zombie sings the prechorus and the Guitar plays the chorus.

| /  slide up
| \  slide down
| h  hammer-on
| p  pull-off
| ~  vibrato
| +  harmonic
| x  Mute note
=============================================================================
Добавлено: 05.06.2013
Другие материалы по этой песне:
  • Аккорды и текст

Страница создана 03.04.2012
http://primanota.ru/rob-zombie/foxy-foxy-chords.htm
Привет, Гость.
Предлагаем пройти революционный курс по гитаре.
Подарок от PrimaNota.Ru, забирай!