PrimaNota.ru - самый крупный в мире бесплатный архив песенных текстов, аккордов, табулатур и нот


Rob Zombie - Educated Horses - таба, видео

Регистрация Запомнить меня
Войти через:  Facebook Google Twitter Vk Yandex Mail.ru

Rob Zombie - Educated Horses - таба, видео

Печатать
Просмотров: 124
Уроки эстрадного вокала в Санкт-Петербурге
Again, I used the highest rated tabs, except for 3 songs had no tabs so I will update
either I figure them out or they get added to UG.  Also, 17 Year Locust only had an intro
so I will try to figure out the rest and update.  American Witch is the version I tabbed 
 JOHN 5 RULES.

1.	"Sawdust in the Blood" (Version 1)- Tabbed by shyt13
2.	"American Witch"  (My Version)- Tabbed by Me
3.	"Foxy Foxy"  (Version 2)- Tabbed by SlinkyMcdougall
4.	"17 Year Locust" (Intro Version 1)- Tabbed by Ganjrockr
5.	"The Scorpion Sleeps" (Version 1)- Tabbed by Tyler Marley
6.	"100 Ways" (Version 1)- Tabbed by javi_twiggy
7.	"Let It All Bleed Out" (Version 1)- Tabbed by javi_twiggy
8.	"Death of It All" (Version 1)
9.	"Ride" (No Tab)
10.	"The Devil's Rejects" (No Tab)
11.	"Lords of Salem" (No Tab)

1. SAWDUST IN THE BLOOD - Tabbed by Shyt13
     F  A   F  A  E  A  E  A  D
e|---------------------------------------|
B|---------------------------------------|
G|--10-----10-----9-----9-----7----------|
D|------7------7-----7-----7-------------|
A|---------------------------------------|
E|---------------------------------------| X2

    Eb G  Eb G  D  G  D  G  C
e|---------------------------------------|
B|---------------------------------------|
G|--8-----8-----7-----7-----5------------|
D|-----5-----5-----5-----5---------------|
A|---------------------------------------|
E|---------------------------------------| X2


     F  A   F  A  E  A  E  A  D             F   A  F   A  G  A  G  A  A
e|--------------------------------------|----------------------------------|
B|--------------------------------------|-----------------8-----8-----10---|
G|--10-----10-----9-----9-----7---------|---10-----10----------------------|
D|------7------7-----7-----7------------|-------7------7-----7-----7-------|
A|--------------------------------------|----------------------------------|
E|--------------------------------------|----------------------------------|


    Eb G  Eb G  D  G  D  G  C               Eb G  Eb G  F  G  F  G  G
e|--------------------------------------|----------------------------------|
B|--------------------------------------|---------------6-----6-----8------|
G|--8-----8-----7-----7-----5-----------|---8-----8------------------------|
D|-----5-----5-----5-----5--------------|------5-----5-----5-----5---------|
A|--------------------------------------|----------------------------------|
E|--------------------------------------|----------------------------------|


    F  A   F  A  E  A  E  A  D
e|---------------------------------------|
B|---------------------------------------|
G|--10-----10-----9-----9-----7----------|
D|------7------7-----7-----7-------------|
A|---------------------------------------|
E|---------------------------------------| X2

    Eb G  Eb G  D  G  D  G  C
e|---------------------------------------|
B|---------------------------------------|
G|--8-----8-----7-----7-----5------------|
D|-----5-----5-----5-----5--5------------|
A|---------------------------------------|
E|---------------------------------------| X2

| /  slide up
| \  slide down
| h  hammer-on
| p  pull-off
| ~  vibrato
| +  harmonic
| x  Mute note

2.  AMERICAN WITCH - Tabbed by Me
American Witch
Rob Zombie
Educated Horses

INTRO

-Guitar 1
E[--------------------------------------------------------------------------]
B[--------------------------------------------------------------------------]
G[--------------------------------------------------------------------------]
D[--99-99-999--------99-99--------------99-99-999--------99-99--------------]
A[--99-99-999--10-9--99-99--10-9--13----99-99-999--10-9--99-99--10-9--7-----]
E[--77-77-777---8-7--77-77--8--7--11----77-77-777---8-7--77-77---8-7--5-----]

-Guitar 2
E[--7-7-7-7-7-7-7-7-7-7-7-7-b10----7-7-7-7-7-7-7-7-7-7-7-7-b5---------------]
B[--------------------------------------------------------------------------]
G[--------------------------------------------------------------------------]
D[--------------------------------------------------------------------------]
A[--------------------------------------------------------------------------]
E[--------------------------------------------------------------------------]

VERSE

-Both Guitars  x2
E[----------------------------------------------------------------------------]
B[----------------------------------------------------------------------------]
G[----------------------------------------------------------------------------]
D[--99-99-999--------99-99--------------99-99-999--------99-99----------------]
A[--99-99-999--10-9--99-99--10-9--13----99-99-999--10-9--99-99--10-9--7-------]
E[--77-77-777---8-7--77-77--8--7--11----77-77-777---8-7--77-77---8-7--5-------]
   PM-------        PM---              PM-------        PM--------------------]

-Both Guitars x2
E[--------------------------------------------------------------------------]
B[--------------------------------------------------------------------------]
G[--------------------------------------------------------------------------]
D[--99-99-999--------99-99--------------99-99-999--------99-99--------------]
A[--99-99-999--10-9--99-99--10-9--13----99-99-999--10-9--99-99--10-9--7-----]
E[--77-77-777---8-7--77-77--8--7--11----77-77-777---8-7--77-77---8-7--5-----]

CHORUS

-Both Guitars x2
E[--------------------------------------------------------------------------]
B[--------------------------------------------------------------------------]
G[--------------------------------------------------------------------------]
D[--99\7--99\7--99\7/99/12--99\7--99\7--99\7/99\5---------------------------]
A[--99\7--99\7--99\7/99/12--99\7--99\7--99\7/99\7---------------------------]
E[--77\5--77\5--77\5/77/10--77\5--77\5--77\5/77\5---------------------------]

PRE-BRIDGE/END CHORUS

-Both Guitars x2
E[-------------------------------------]
B[-------------------------------------]
G[-------------------------------------]
D[-------------------------------------]
A[-------------------------------------]
E[--0-2-3-0-3-5-0-5-7-0-7-9-0-9/12-----]

BRIDGE 1

-Guitar 1
E[-------------------------------------]
B[-------------------------------------]
G[--------16--------16----14-----------]
D[-------------------------------------]
A[--14-15-----14-15----14--------------]
E[-------------------------------------]

BRIDGE 2

-Guitar 2 x2 (Strike each note either once or twice)
E[--15-14-15-14-15-14-15-19------------]
B[-------------------------------------]
G[-------------------------------------]
D[-------------------------------------]
A[-------------------------------------]
E[-------------------------------------]


Song Lineup  (I Think This Is Right)
INTRO
VERSE
CHORUS
VERSE
CHORUS
PRE BRIDGE/CHORUS
BRIDGE 1
BRIDGE 2
VERSE
CHORUS

3.  Foxy, Foxy - Tabbed by SlinkyMcdougall
Tabbed by: Slinky McDougall
Tuning: Standard

Intro
   + +   + +   + +   + +    1st ending (2nd skips to main riff once)
e||-----------------------|--------------------------||
B||-3-3---3-3---3-3---3-3-|--------------------------||
G||-3-3---3-3---3-3---3-3-|--------------------------||
D||-3-3---3-3---3-3---3-3-|--------------------------||
A||-----------------------|--------------------------||
E||-----------------------|-x-3-x-2----x-2---2-x-2---||

Main Riff
e|----------------------|
B|----------------------|
G|----------------------|
D|----------------------|
A|----------------------|
E|-3-2-xxx-2-x-2-xx-2/3-|

Pre-Chorus (synth arranged for guitar)
e|------------------------|
B|------------------------|
G|----------------2-------|
D|-----2---4----------4---|
A|-4-----------4----------|
E|------------------------|

Guitar
e|----------------------|
B|----------------------|
G|----------------------|
D|-5-4-xxx-4-x-4-xx-4/5-|
A|-5-4-xxx-4-x-4-xx-4/5-|
E|-3-2-xxx-2-x-2-xx-2/3-|

Chorus
e|------------------------------------|
B|------------------------------------|
G|------------------------------------|
D|-4----2----4----4-------------------|
A|-4----2----4----4-------------------|
E|-2----0----2----2----2--2--2-x-2----|
                        ^(w/ Wah)^

Full Intro
Main Riff x 12
Prechorus x 4
Chorus x 4
Pause (drums and synth)
Main Riff x 8
Prechorus x 4
Chorus x 4
Main Riff x 6
Prechorus x 4
Chorus x 4
Prechorus/Chorus* x 4

* = The Keyboard plays the synth Prechorus, Zombie sings the prechorus and the Guitar 
the chorus.

| /  slide up
| \  slide down
| h  hammer-on
| p  pull-off
| ~  vibrato
| +  harmonic
| x  Mute note
=============================================================================

4.  17 YEAR LOCUST INTRO - Tabbed by Ganjrockr
Artist: Rob Zombie
Song: 17 Year Locust (Intro)
Album: Educated Horses (2006)

Tuning: Standard (eBGDAE)

Heres the pretty cool sounding intro from the song.  Took me about 10 minutes to figure
out (its a long time, but I don't transcribe music to tab often). I'll work on having
rest done as soon as I can.

The first droning note sounds like a bass playing as well , I'll have to record it with
bass and see how it sounds.

Intro
e|--------------------------------------------|
B|-----------------8-7---5-6-5----------------|
G|---6--6-4-6-4-6------6----------------------|
D|--------------------------------------------|
A|--------------------------------------------|
E|--------------------------------------------|

| /  slide up
|   slide down
| h  hammer-on
| p  pull-off
| ~  vibrato
| +  harmonic
| x  Mute note
============================================================================

5.  THE SCORPION SLEEPS - Tabbed By Tyler Marley
Tuning: standard

Song: The Scorpion Sleeps
Artist: Rob Zombie
Album: Educated Horses
Tabbed by: Tyler Marley

This is an awesome song off of Educated Horses.  If you don't have Educated Horses what
you doing here? Go get it right now!  Good Luck!

Intro
e|--------------------------------------|
b|--------------------------------------|
g|-8-7-3-5--8-10-8-7--8-7-3-5--5--8-7-8-|
d|-8-7-3-5--8-10-8-7--8-7-3-5--5--8-7-8-|
a|-6-5-1-3--6-8--6-5--6-5-1-3--3--6-5-6-|
e|--------------------------------------|

Chorus                             Then...                          2nd time
e|--------------------------------|---------------------------------|--------|
b|--------------------------------|---------------------------------|--------|
g|-3-5-5--5-8-8--3-5-5--3-5-5-5-5-|---5---5---5---------------------|--------|
d|-3-5-5--5-8-8--3-5-5--3-5-5-5-5-|---5---5---5---------13-13b(1/2)-|-13-----|b(1)
a|-1-3-3--3-6-6--1-3-3--1-3-3-3-3-|---3---3---3---15-13-------------|--------|
e|--------------------------------|---------------------------------|--------|
                                   (keep picking the 13 during bend)
                                   "alright, said it's alright..."
Verse
e|--------------|
b|--------------|
g|-3-5-5--x-x-x-|
d|-3-5-5--x-x-x-|
a|-1-3-3--x-x-x-|
e|--------------|

b() bend to number of steps indicated in parenthesis
x fret hand mute

That's it! Please rate.

6.  100 WAYS - Tabbed by
Rob Zombie
100 Ways
From "Educated Horses"

main:
e|------------------------------------------------------------------------|
b|------------------------------------------------------------------------|
g|-7/8-8-8-8-8-8-8-8-8-5-5-5-5-5-5-5-5/7-7-7-7-7-7-7-7-7-5/7-7-7-7-7-7-7--|
d|-0-0-0-0-0-0-0-0-0-0-0-0-0-0-0-0-0-0-0-0-0-0-0-0-0-0-0-0-0-0-0-0-0-0-0--|
a|------------------------------------------------------------------------|
e|------------------------------------------------------------------------|

and that's all
the guitar follows the piano
the bass i didn't figure it out yet, but it must be similar to the guitar
part or maybe an octave lower

7.  LET IT ALL BLEED OUT - Tabbed by javi_twiggy
Rob Zombie
Let it all Bleed out
From the album "Educated Horses"
Tabbed by javi_twiggy

tuning DADGBE
 p = palm muted
 / = slide


verses:
e|-------------------------------------------------------------|
b|-------------------------------------------------------------|
g|----------------------------------------------5-5-5-3-5-6----|
d|--0-0-0-0---1-0--0---0-0-0---0---0-0-0---0----5-5-5-3-5-6----|
a|--0-0-0-0---1-0--0---0-0-0---0---0-0-0---0-------------------|
d|--0-0-0-0---1-0--0---0-0-0---0---0-0-0---0-------------------|
    p p p p            p p p       p p p

break:
e|-------------------------------|
b|-------------------------------|
g|-------------------------------|
d|--0-6---5-3---0-6---5-3---0----|
a|--0-6---5-3---0-6---5-3---0----|
d|--0-6---5-3---0-6---5-3---0----|


chorus guitar 1:
e|--------------------------------------------------------------|
b|--------------------------------------------------------------|
g|------8/108----13-12-13-12--------8/108----13-12-13-/15-------|
d|--10---------------------------10-----------------------------|
a|--------------------------------------------------------------|
d|--------------------------------------------------------------|

chorus guitar 2:
e|--------------------------------------------------|
b|--------------------------------------------------|
g|--------------------------------------------------|
d|--5--5--5-5-/6-6--6--6---0--0--0-0---3-3--3--3----|
a|--5--5--5-5-/6-6--6--6---0--0--0-0---3-3--3--3----|
d|--3--3--3-3-/6-6--6--6---0--0--0-0---3-3--3--3----|


the coolest song on the new album
try yourself to figure out the solo between verses
me cago en dios!

8.  DEATH OF IT ALL - Tabbed by Tyler Marley
tuning: CGCFAD

Song: Death of it All
Artist: Rob Zombie
Album: Educated Horses
Tabbed by: Tyler Marley

Here it is.  Sorry, I don't have it all but I have the main parts.

Intro: Guitar 1 (let ring)
D|-8-----8-----7-----7-----|-8-----8-----7-----7-----|---------------|
A|---0-----0-----0-----0---|---0-----0-----0-----0---|---8------8----|
F|-----9-----9-----9-----9-|-----9-----9-----9-----9-|-----11-----11-|
C|-------------------------|-------------------------|-9------9------|
G|-------------------------|-------------------------|---------------|
C|-------------------------|-------------------------|---------------|

                                Ending 1st time    Ending 2nd time
D|-------------|---------------|-------------|        D|-------------|
A|---7-----7---|---8------8----|---7-----7---|        A|---7---------|
F|-----9-----9-|-----11-----11-|-----9-----9-|        F|-----9---7---|
C|-9-----9-----|-9------9------|-9-----9-----|(2X)    C|-9-----9---9-|
G|-------------|---------------|-------------|        G|-------------|
C|-------------|---------------|-------------|        C|-------------|

(2X)
D|--------------------------|-------------0-------0---|(where outro ends)
A|-7-------7---8--------8---|-7-------7---------------|
F|---0---0---0---0---0----0-|---0---0---0---0---0---0-|
C|--------------------------|-------------------------|
G|-----9-----------9--------|-----9-----------9-------|
C|--------------------------|-------------------------|

(2X)
D|-8-----8-----7-----7-----|---------------|-------------|
A|---0-----0-----0-----0---|---8------8----|---7-----7---|
F|-----9-----9-----9-----9-|-----11-----11-|-----9-----9-|
C|-------------------------|-9------9------|-9-----9-----|
G|-------------------------|---------------|-------------|
C|-------------------------|---------------|-------------|

(3X)                            Ending of Intro:
D|-0-----0-----0-------0---|    D|-0-----0----------|
A|---6-----6-----6-------6-|    A|---6-----6--------|
F|-----9-----9-----9-------|    F|-----9-----9------|
C|-------------------8-----|    C|-------------8----|
G|-------------------------|    G|------------------|
C|-------------------------|    C|------------------|

Main Riff: Guitar 1 (3X)         Main Riff: Guitar 2 (3X)  Then...
D|----12-12-14-15---|              D|---------------|      D|--------------|
A|-12---------------|              A|---------------|      A|--------------|
F|------------------|              F|---9-9-11-12---|      F|---9-9----9-9-|
C|------------------|              C|-9-9-9-11-12---|      C|-9-9-9--9-9-9-|
G|------------------|              G|-9-7-7--9-10---|      G|-9-7-7--9-7-7-|
C|------------------|              C|-9-------------|      C|-9------9-----|


Verse: sorry, don't have


Chorus: Main Riff, Guitars 1 and 2


Interlude: Main Riff, Guitar 2 (with orchestra)


Verse


Chorus


Interlude


Verse


Chorus


Outro: Same as intro (marked where to stop)


There it is.

ZOMBIE RULES!

9.  RIDE (No Tab Yet)
10.  THE DEVIL's REJECTS (No Tab Yet)
11.  LORDS OF SALEM (No Tab Yet)
Добавлено: 09.10.2013
Другие материалы по этой песне:
  • Аккорды и текст

Страница создана 09.10.2013
http://primanota.ru/rob-zombie/educated-horses-chords.htm
Привет, Гость.
Предлагаем пройти революционный курс по гитаре.
Подарок от PrimaNota.Ru, забирай!