PrimaNota.ru - самый крупный в мире бесплатный архив песенных текстов, аккордов, табулатур и нот


Rob Scallon - The Backwards Song Forward - бас-таба, видео

Регистрация Запомнить меня
Войти через:  Facebook Google Twitter Vk Yandex Mail.ru

Rob Scallon - The Backwards Song Forward - бас-таба, видео

Печатать
Просмотров: 128
Уроки эстрадного вокала в Санкт-Петербурге
Title : The Backwards Song (forward)
Artist : Rob Scallon
Tempo : 80 BPM
Tunning : Standard (EADG)

G|-------------8h9--9----9/11--13--11--9--8----------------------------------|
D|----6--7--9----------------------------------------------------------------|
A|-7-----------------------------------------11h12p11------------------------|
E|---------------------------------------------------------------------------|

G|---------------------------------------------------------------------------|
D|----------6----6--9--6-----------------------------------------------------|
A|-7-----7-------------------7-----------------------------------------------|
E|-------------------------------7--4--7----4--------------------------------|

Repeat it several times and in the end play this :

                                                       let ring ~ ~ ~ ~ ~ ~ ~|
G|-------------8h9--9----9/11--13--11--9--8----------------------------------|
D|----6--7--9----------------------------------------------------------------|
A|-7-----------------------------------------11h12p11--7---------------------|
E|---------------------------------------------------------------------------|




| /  slide up
| h  hammer-on
| p  pull-off
===============================================================================
Добавлено: 31.08.2015
Другие материалы по этой песне:
  • Аккорды и текст

Страница создана 31.08.2015
http://primanota.ru/rob-scallon/backwards-song-forward-chords.htm
Привет, Гость.
Предлагаем пройти революционный курс по гитаре.
Подарок от PrimaNota.Ru, забирай!