PrimaNota.ru - самый крупный в мире бесплатный архив песенных текстов, аккордов, табулатур и нот


Rob Marcello - Insomnia - таба, видео

Регистрация Запомнить меня
Войти через:  Facebook Google Twitter Vk Yandex Mail.ru

Rob Marcello - Insomnia - таба, видео

Печатать
Просмотров: 137
Уроки эстрадного вокала в Санкт-Петербурге
Insomnia, by Rob Marcello (http://www.robertmarcello.net/)
Tabbed by Chris Conway

Regular tuning

h = hammer on
p = pull-off
. = tremolo picking
~ - sustain


I found Rob Marcello's "Insomnia" searching on Youtube, but was surprised that there was 
tab for it on the internet, or even that UG didn't have a tab. This is just the amazing 
to the song.

INTRO

|--------------------------------|--------------------------------|
|-------------11-10h11p10--------|--------------------------------|
|----------12-------------12-10--|--12----------14----------17~---|
|-------12-----------------------|-----15151515----15151515-------|
|-10-12--------------------------|-----........----........-------|
|--------------------------------|--------------------------------|

|-20-18-15----------15------------------18-20-17-18-15-17------------|
|----------18-15-18----18-15----15-18---------------------18-20-15~--|
|----------------------------17--------------------------------------|
|--------------------------------------------------------------------|
|--------------------------------------------------------------------|
|--------------------------------------------------------------------|

Repeat the above twice. Then there's a short shredding part where the scales are too 
for me to transcribe.

|-------15-15~-|-------13-10-----|---------15-17/18-15~--------------|
|----11--------|----10-------13~-|------11---------------------------|
|-12-----------|-10--------------|---12------------------------------|
|--------------|-----------------|-----------------------------------|
|--------------|-----------------|-----------------------------------|
|--------------|-----------------|-----------------------------------|

And Rob Marcello goes off with the rest of the song. Can't help you with that one, but 
one day someone better than me can tab the rest.
Добавлено: 18.07.2012
Другие материалы по этой песне:

Страница создана 18.07.2012
http://primanota.ru/rob-marcello/insomnia-chords.htm
Привет, Гость.
Предлагаем пройти революционный курс по гитаре.
Подарок от PrimaNota.Ru, забирай!