PrimaNota.ru - самый крупный в мире бесплатный архив песенных текстов, аккордов, табулатур и нот


Rob Hoeke - When People Talk - таба, видео

Регистрация Запомнить меня
Войти через:  Facebook Google Twitter Vk Yandex Mail.ru

Rob Hoeke - When People Talk - таба, видео

Печатать
Просмотров: 71
Уроки эстрадного вокала в Санкт-Петербурге
-------------------------------------------------------------------------------
                             When people talk - Rob Hoeke Rhythm & Blues
-------------------------------------------------------------------------------
Tabbed by: Davide Bencivinni
E-mail: davidebncv@libero.it

Tuning: standard (EADGBe)

Chords:

    F     Gm    A#    C

e|--1-----3-----6-----8----|
B|--1-----3-----6-----8----|
G|--2-----3-----7-----9----|
D|--3-----5-----8-----10---|
A|--3-----5-----8-----10---|
E|--1-----3-----6-----8----|

b=bend
s=slide
v=vibrato
p=pull off
()=facoltative

This is my first tab. I'm not sure it's 100% correct. If you are sure about a correction, you can correct it.

Verse 1

                   Gm    F    A#  
When people talk

C                                      Gm    F    A#
They don't know what they talk about
 
  C       Gm     F             A#
I just go on     playing my game

C                      Gm         F    A#
Why do they have to speak all out?



C                 Gm   F   A#
When people growl

  C                Gm   F    A#                
About hair too long       and dress too short

c            Gm    F          A#
I don't react,      walk on by

C
Why do they have to cry?

                          x3                                            x2
e|-------------------------|-------------------|-------------------------|-----|
B|°-----------3-----------°|-------------------|°-----------3-----------°|-----|
G|------3--5-----5--(5)p3--|------3--5--(5)p3--|------3--5-----5--(5)p3--|-----|
D|--3s5--------------------|--3s5--------------|--3s5--------------------|--5--|
A|°-----------------------°|-------------------|°-----------------------°|-----|
E|-------------------------|-------------------|-------------------------|-----|


Verse 2
 
                                     Gm    F    A#
Yeah, yeah, yeah when people speak

C               Gm              F    A#  
And gossip about a lot of things

C                  Gm     F             A#
I should haved care,      I live my life

C
They're talkin' about my life

                       x8
e|------|---------------|--------------------|---------------------|--------------|-------------------|
B|------|°-------------°|--------------------|---------------------|--------------|----------------3v-|
G|------|-(3)-5(p)3-----|--5b7-5-3-----------|--------------5v--3v-|-3-5--5p4p3---|-5-3v-----3-5-3----|
D|--3s5-|------------5--|----------5---5-3---|---3--5-5-3-5--------|------------5-|--------5----------|
A|------|°-------------°|------------------5-|-5-------------------|--------------|-------------------|
E|------|---------------|--------------------|---------------------|--------------|-------------------|

                                                     x5
e|-----------------|------------------|---------------|---------5b6v-6b7v-7b8v-|---------------|
B|-----------------|-3-3--------------|°-------------°|------------------------|---------------|
G|-5-4-3---------5-|-----5p3-(3)----5-|-(3)-5(p)3-----|-3-5-5b7----------------|-5b7-5--3--2-0-|
D|-------5---5-5---|-------------5----|------------5--|------------------------|---------------|
A|-----------------|------------------|°-------------°|------------------------|---------------|
E|-----------------|------------------|---------------|------------------------|---------------|


Piano solo

(Gm   F   A#   C) x7  Gm    F    A#  


Verse 3

C                     Gm    F    A#
Yeah when people talk

C                              Gm     F     A#
They don't what they talk about
 
  C       Gm     F             A#
I just go on     playing my game

C
Why do they have to cheat aloud?

                          x6
e|-------------------------|-----|
B|°-----------3-----------°|-----|
G|------3--5-----5--(5)p3--|-----|
D|--3s5--------------------|--5--|
A|°-----------------------°|-----|
E|-------------------------|-----|


Verse 4

                        Gm    F    A#
Yeah, when people speak

C               Gm              F    A#
And gossip about a lot of things

C                  Gm     F             A#
I should have cared,      I live my life

C                            Gm    F
They're talkin' about my life
 
A#        C                             Gm    F    A#
Yeah baby, they're talkin' about my life 

C
Oh, I shouldn't care


(Gm   F   A#   C) repeat


That's all. Enjoy it!

Добавлено: 23.05.2016
Вам также может быть интересно:
Другие материалы по этой песне:
  • Аккорды и текст

Страница создана 23.05.2016
http://primanota.ru/rob-hoeke/when-people-talk-chords.htm
Привет, Гость.
Предлагаем пройти революционный курс по гитаре.
Подарок от PrimaNota.Ru, забирай!