PrimaNota.ru - самый крупный в мире бесплатный архив песенных текстов, аккордов, табулатур и нот


Rob Crow - Up - таба, видео

Регистрация Запомнить меня
Войти через:  Facebook Google Twitter Vk Yandex Mail.ru

Rob Crow - Up - таба, видео

Печатать
Просмотров: 119
This is off Rob Crow's fourth solo album on the Temporary Residence label, Living Well.
Well was released in 2007. This is my first tab so if there are any changes that need to
made please let me know. I believe that this is about 95% correct or at least sounds it. 
listen closely for changes between verse and chorus. Thanks a lot and I'll
any info.

*Standard Tuning

Verse
e ---------------------------------|
b ---------------------------------|
g ---------------------------------|
d -----3-------3--------3-------3--|   x13
a ---0---0---0--------0---0---0----|
e -3-------1--------3-------1------|


Chorus
e -------------------------|
b -------------------------|
g ---3-2-0---0-------------|
d ---------3---0----3---3--|   x4
a --------------------3----|
e -3--------------3--------|


Verse 2
e ---------------|
b ---------------|
g ---------------|
d -----3------3--|   x2
a ---0------0----|
e -3------1------|


e ---------------------------------|
b ---------------------------------|
g ---------------------------------|
d -----3-------3--------3-------3--|   x10
a ---0---0---0--------0---0---0----|
e -3-------1--------3-------1------|


Chorus
e -------------------------|
b -------------------------|
g ---3-2-0---0-------------|
d ---------3---0----3---3--|   x4
a --------------------3----|
e -3--------------3--------|


Outro

e -----------------------------------------|
b -----------------------------------------|
g -----------------------------------------|
d -0----0----0----0----0----0----0----0----|   x1
a ---3----3----3----3----3----3----3----3--|
e -----------------------------------------|

e ---------------------------------------|
b ---------------------------------------|
g -----5-----5-----5-----5---------------|
d ---3-----3-----3-----3-----------------|   (Fade out with this or
a -3-----3-----3-----3-------------------|     a similar arrangement)
e ---------------------------------------|

http://www.temporaryresidence.com/bands/robcrow.php
Добавлено: 17.05.2012
Другие материалы по этой песне:

Страница создана 07.04.2012
http://primanota.ru/rob-crow/up-chords.htm
Привет, Гость.
Предлагаем пройти революционный курс по гитаре.
Подарок от PrimaNota.Ru, забирай!