PrimaNota.ru - самый крупный в мире бесплатный архив песенных текстов, аккордов, табулатур и нот


Rob Chappers - Holy Fire - таба, видео

Регистрация Запомнить меня
Войти через:  Facebook Google Twitter Vk Yandex Mail.ru

Rob Chappers - Holy Fire - таба, видео

Печатать
Просмотров: 85
Tabbed by Bram van der Zanden

I'm sorry that it's not complete, i'm working on it but it is a hard song.
Sorry for any mistakes.


D#|-------------------------------------------------------------------------------|
A#|-------------------------------------------------------------------------------|
F#|---------------9~---9---------------------------------9~---9-------------------|
C#|---------------7~---10---7---5-0-5-7*b9r7-5-0-3-2-0---7~---10---7---5h17-------|
G#|-------------------------8--------------------------------------8--------------|
C#|-0-3-0-5-3-0-------------------------------------------------------------------|

D#|--------------------------------------------------------------------|
A#|--------------------------------------------------------------------|
F#|-----9~---9--------5-0-5-7*b9r7-5-0-3-2-0--9~---9--------5*---------|
C#|-----7~---10---7---------------------------7~---10---7--------------|
G#|---------------8-------------------------------------8--------------|
C#|-0------------------------------------------------------------------|

D#|-12b13--------------------------------------------------------------------------|
A#|-------12-13b14--------------------------------------/6-------------------------|
F#|----------------10-----9b10-7---7-9-10-9-10-9-7/5~------7-5-----------5---------|
C#|-------------------/11--------------------------------------7/5-3-5/7---7/5-----|
G#|----------------------------------------------------------------------------5*~-|
C#|--------------------------------------------------------------------------------|

D#|-----12b13----15*b14---15-12-------------------------------------|
A#|-----------12----------------14-11----14-11----------------------|
F#|-----------------------------------12-------12-------------------|
C#|-----------------------------------------------14-11-11-12-------|
G#|-/12-------------------------------------------------------------|
C#|-----------------------------------------------------------------|

D#|--------------------------10-------10----10-13b14~---------------|
A#|-----------------------10----13b14----13-------------------------|
F#|-----10-12b13r12-10-12-------------------------------------------|
C#|-/12-------------------------------------------------------------|
G#|-----------------------------------------------------------------|
C#|-----------------------------------------------------------------|

D#|-----------------------------------------------------------------|
A#|-----------------------------------------------------------------|
F#|-----9/10-9-10-7-------------------------------------------------|
C#|---7-------------------------------------------------------------|
G#|-5---------------------------------------------------------------|
C#|-----------------------------------------------------------------|
Добавлено: 23.07.2015
Вам также может быть интересно:
Другие материалы по этой песне:
  • Аккорды и текст

Страница создана 23.07.2015
http://primanota.ru/rob-chappers/holy-fire-chords.htm
Привет, Гость.
Предлагаем пройти революционный курс по гитаре.
Подарок от PrimaNota.Ru, забирай!