PrimaNota.ru - самый крупный в мире бесплатный архив песенных текстов, аккордов, табулатур и нот


Rob Chapman - Holy Fire - таба, видео

Регистрация Запомнить меня
Войти через:  Facebook Google Twitter Vk Yandex Mail.ru

Rob Chapman - Holy Fire - таба, видео

Печатать
Просмотров: 92
-------------------------------------------------------------------------------
                             Holy Fire - Rob Chapman
-------------------------------------------------------------------------------
Tabbed by: John Darakjian
E-mail: darakjian@gmail.com

Tuning: Drop C#:  C#G#C#F#A#D#

This transcription was made from the studio recording and reference to video of Chappers 
playing the song was consulted whenever possible in the hopes of increasing accuracy.  
Two of the latter minor pentatonic segments have not been transcribed due to time (and
the fluidity of the runs making it a bit hard to transcribe with the unassisted ear) so
I encourage anyone who has the time and interest to improve this version by transcribing 
those sections.  

e|----------------------------------------------------------------------------|
B|----------------------------------------------------------------------------|
G|-----------------9----9-----------------------------------------------------|
D|-----------------7----10-----7-----5---0---5---7---b7(8 AH)r--5-0--3--2--0--|
A|-----------------------------8----------------------------------------------|
E|-0 3 0 5 0 3-0-0------------------------------------------------------------|

e|---------------------------------------------------------------------------|
B|---------------------------------------------------------------------------|
G|---------------9----9------------------------------------------------------|
D|---------------7----10-----7-----5----17 (harmonic R.H. tap)---------------|
A|---------------------------8-----------------------------------------------|
E|---------------------------------------------------------------------------|

e|---------------------------------------------------------------------------|
B|---------------------------------------------------------------------------|
G|--------------9----9-------------------------------------------------------|
D|--------------7----10-----7-----5----0---5---7---7(8AH)r--5-0--3--2--0-----|
A|--------------------------8------------------------------------------------|
E|----0----------------------------------------------------------------------|

e|---------------------------------------------------------------------------|
B|---------------------------------------------------------------------------|
G|---------------9----9------------------------------------------------------|
D|---------------7----10-----7-----5-----------------------------------------|
A|---------------------------8-----------------------------------------------|
E|---------------------------------------------------------------------------|

e|----12 b(13)r--------------------------------------------------------------|
B|----------------10--13 b(15)r----------------------------------------------|
G|-----------------------------------10---9--h10---p9--\7--------------------|
D|---------------------------------------------------------------------------|
A|---------------------------------------------------------------------------|
E|---------------------------------------------------------------------------|

e|---------------------------------------------------------------------------|
B|--------------------------------------/6-----------------------------------|
G|----7---9---10--9---h10---p9---p7---------7--5-----------------------------|
D|------------------------------------------------7--5--\3-------------------|
A|---------------------------------------------------------------------------|
E|---------------------------------------------------------------------------|

e|---------------------------------------------------------------------------|
B|---------------------------------------------------------------------------|
G|--------------5------------------------------------------------------------|
D|----5--/7------5--\3-------------------------------------------------------|
A|---------------------------5-(AH)------------------------------------------|
E|---------------------------------------------------------------------------|
                                 Sweep....................................|
e|----12b(13)r--------15b(17)r---15p--12-------------------------------------------|
B|--------------10------------------------14---------14p--11-----------------------|
G|-------------------------------------------15p--12-----------12------------------|
D|-----------------------------------------------------------------14p--11--12-----|
A|---------------------------------------------------------------------------------|
E|---------------------------------------------------------------------------------|


e|----------------------------------------10---------10-----------10--13b(15)-------|
B|-------------------------------------10----13b(15)----10-13b(15)------------------|
G|----------10--12--12b(13)r--p10--12b----------------------------------------------|
D|----/12---------------------------------------------------------------------------|
A|----------------------------------------------------------------------------------|
E|----------------------------------------------------------------------------15\---|

e|------------------------------------------------------------------------------------|
B|------------------------------------------------------------------------------------|
G|--------------9-/10---9--h10---p9---p7----------------------------------------------|
D|---------7-------------------------------h10----7--h8---p7--------------------------|
A|-----5-----------------------------------------------------10-----------------------|
E|------------------------------------------------------------------------------------|
                                     
e|------------------------------------------------------------------------------------|
B|------------------------------------------------------------------------------------|
G|------------14-/15---14--h15---p14--p12---------------------------------------------|
D|--------12--------------------------------15-/17------------------------------------|
A|---10-------------------------------------------------------------------------------|
E|------------------------------------------------------------------------------------|

e|--------10------12------13-12---13--- 15---13-----15-----|
B|---/10------10------10-------13----13---------13---------|
G|---------------------------------------------------------|
D|---------------------------------------------------------|
A|---------------------------------------------------------|
E|---------------------------------------------------------|

e|----17--h18--17p--15-------17---15-----------18b(20)--------------------------------|
B|----------------------18------------18---17-----------------------------------------|
G|------------------------------------------------------------------------------------|
D|------------------------------------------------------------------------------------|
A|------------------------------------------------------------------------------------|
E|------------------------------------------------------------------------------------|

e|------------------------------------------------------------------------------------|
B|------------------------------------------------------------------------------------|
G|------------------------------------------------------------------------------------|
D|----/7---------7--8--10---8---h10---8p--7p--\5---7 b(8 AH)r-------------------------|
A|----------10------------------------------------------------------------------------|
E|------------------------------------------------------------------------------------|

e|------------------------------------------------------------------------------------|
B|-----------------------------------------8----------12------------------------------|
G|------------------------------------------------------------------------7--9--10----|
D|---5-/7--8--10---8---h10---8p--7p--/5---------/9----------5--/7--8--10--------------|
A|------------------------------------------------------------------------------------|
E|------------------------------------------------------------------------------------|

e|--------------10--12--13---/15--13--12-------------------12 b(13)r---------------------|
B|--8--10--11-----------------------------15--13--11------------------10---10---13b(15)r-|
G|----------------------------------------------------14---------------------------------|
D|---------------------------------------------------------------------------------------|
A|---------------------------------------------------------------------------------------|
E|---------------------------------------------------------------------------------------|

e|---------------------------------------------------------------------------------------|
B|--p10----------10--13p---10-------10---------------------------------------------------|
G|------12b(13)----------------12b------12--b12--10---------------10--12b(13)r---12b(13)-|
D|---------------------------------------------------12\-----/12-------------------------|
A|---------------------------------------------------------------------------------------|
E|---------------------------------------------------------------------------------------|

e|-----10-----------10-----12b(13)--10----------13b(15)----15b(17)r--13-15---15(17)r--|
B|--10-----13b(14)-----10---------------13--10----------------------------------------|
G|------------------------------------------------------------------------------------|
D|------------------------------------------------------------------------------------|
A|------------------------------------------------------------------------------------|
E|------------------------------------------------------------------------------------|

e|---13--15---------10------12b(13)r-10-----------------------------------------------|
B|-------------/10------10---------------13--10----------10---------------------------|
G|-----------------------------------------------12b(13)----12--10--------------------|
D|-----------------------------------------------------------------12---10------------|
A|-------------------------------------------------------------------------12---10----|
E|------------------------------------------------------------------------------------|

e|------------------------------------------------------------------------------------|
B|------------------------------------------------------------------------------------|
G|------------------------------------------------------------------------------------|
D|------------------------------------------------------------------------------------|
A|--\8--\7----------------------------------------------------------------------------|
E|------------------------------------------------------------------------------------|


e|------------------------------------------------------------------------------------|
B|------------------------------------------------------------------------------------|
G|--------------9-/10---9--h10---p9---p7----------------------------------------------|
D|---------7-------------------------------h10----7--h8---p7--------------------------|
A|-----5-----------------------------------------------------10-----------------------|
E|------------------------------------------------------------------------------------|

e|------------------------------------------------------------------------------------|
B|------------------------------------------------------------------------------------|
G|------------14-/15---14--h15---p14--p12---------------------------------------------|
D|--------12--------------------------------15-/17------------------------------------|
A|---10-------------------------------------------------------------------------------|
E|------------------------------------------------------------------------------------|

e|--------10------12------13------12-12-----13------15--------13---13-------15--------|
B|---/10------10------10------10--------13------13-------13------------13-------------|
G|------------------------------------------------------------------------------------|
D|------------------------------------------------------------------------------------|
A|------------------------------------------------------------------------------------|
E|------------------------------------------------------------------------------------|

e|----17--h18--17p--15-------17---15-----------18b(20)--------------------------------|
B|----------------------18------------18---17-----------------------------------------|
G|------------------------------------------------------------------------------------|
D|------------------------------------------------------------------------------------|
A|------------------------------------------------------------------------------------|
E|-------------------------------------------------------19\--------------------------|

e|------------------------------------------------------------------------------------|
B|------------------------------------------------------------------------------------|
G|------------------------------------------------------------------------------------|
D|----/7---------7--8--10---8---h10---8p--7p--\5---7 b(8 AH)r-------------------------|
A|----------10------------------------------------------------------------------------|
E|------------------------------------------------------------------------------------|

e|------------------------------------------------------------------------------------|
B|-----------------------------------------8----------12------------------------------|
G|------------------------------------------------------------------------7--9--10----|
D|---5-/7--8--10---8---h10---8p--7p--/5---------/9----------5--/7--8--10--------------|
A|------------------------------------------------------------------------------------|
E|------------------------------------------------------------------------------------|

e|--------------10--12--13---/15--13--12----------------------------------------------|
B|--8--10--11-----------------------------15--13--11----------------------------------|
G|-----------------------------------------------------14-----------------------------|
D|------------------------------------------------------------------------------------|
A|------------------------------------------------------------------------------------|
E|------------------------------------------------------------------------------------|

e|------------------------------------------------------------------------------------|
B|------------------------------------------------------------------------------------|
G|------------------------------------------------------------------------------------|
D|----/7---------7--8--10---8---h10---8p--7p--\5---7 b(8 AH)r-------------------------|
A|----------10------------------------------------------------------------------------|
E|------------------------------------------------------------------------------------|

e|------------------------------------------------------------------------------------|
B|-----------------------------------------8----------12------------------------------|
G|---------------------------------------------------------10--------12--------13-----|
D|---5-/7--8--10---8---h10---8p--7p--/5---------/9---------12b(14)---14b(16)---15b(17)|
A|------------------------------------------------------------------------------------|
E|------------------------------------------------------------------------------------|
                Repeat three times...............  then                 
e|------------------------------------------------------------------------------------|
B|--------------------------------x-x---12---10b---------------------12b(1/4)r--p10---|
G|---19---------------------------x-x---12---10b---------------------12b(1/4)r--p10---|
D|--------------------------------x---------------------------------------------------|
A|------------------------------------------------------------------------------------|
E|-------19\-----0---0--10-12-10-----------------------0--0--10--12-------------------|

e|------------------------------------------------------------------------------------|
B|---12b(1/4)r--p10-------12b(1/4)r--p10-----12--p10----------------------------------|
G|---12b(1/4)r--p10-------12b(1/4)r--p10-----12--p10----------------------------------|
D|------------------------------------------------------------------------------------|
A|------------------------------------------------------------------------------------|
E|------------------------------------------------------------------------------------|

e|-------------------------------------------------------10---------------------------|
B|----------------------x-x---12---10b------------------------------------------------|
G|----------------------x-x---12---10b-----12b(13)r--10-------------------------------|
D|----------------------x-------------------------------------------------------------|
A|------------------------------------------------------------------------------------|
E|----0---0--10-12-10-----------------------------------------------------------------|



************************************

| /   slide up
| \   slide down
| h   hammer-on
| p   pull-off
| ~   vibrato
| +   harmonic
| x   Mute note
| b   Bend
| pb  Pre-bend
| br  Bend release
| pbr Pre-bend release
| brb Bend release bend

************************************
Добавлено: 06.12.2015
Другие материалы по этой песне:
  • Аккорды и текст

Страница создана 06.12.2015
http://primanota.ru/rob-chapman/holy-fire-chords.htm
Привет, Гость.
Предлагаем пройти революционный курс по гитаре.
Подарок от PrimaNota.Ru, забирай!