PrimaNota.ru - самый крупный в мире бесплатный архив песенных текстов, аккордов, табулатур и нот


Rob Base - It Takes Two - аккорды и текст, бас-таба, видео

Регистрация Запомнить меня
Войти через:  Facebook Google Twitter Vk Yandex Mail.ru

Rob Base - It Takes Two - аккорды и текст, бас-таба, видео

Печатать
Просмотров: 116
Авторы музыки: Robert Ginyard, James Brown

It Takes Two
Rob Base
-------------------------------------------------------------------------------
                             IT TAKES TWO - Rob Base and D.J. EZ-Rock
-------------------------------------------------------------------------------
Tabbed by: adrian341
E-mail: adrian341@hotmail.com

Tuning: Standard

INTRO:
e|---------------------------------------------------------------------------|
B|---------------------------------------------------------------------------|
G|-7\6\5----7\6\5------5\4\3-------7\6\5-------------------------------------|
D|---------------------------------------------------------------------------|
A|-5\4\3----5\4\3------3\2\1-------5\4\3-------------------------------------|
E|---------------------------------------------------------------------------|
(Many effects are used during this part. I strum the first chord and then
 the last in each series of three chords. The chord in the middle, I slide over.)

MAIN RIFF:
e|-3-3-----------------------------------------------------------------------|
B|-0-0-----------------------------------------------------------------------|
G|-0-0-----------------------------------------------------------------------|
D|-0-0-----2--4--55----------------------------------------------------------|
A|-2-2-----0--0--00----------------------------------------------------------|
E|-3-3-----2--2--33----------------------------------------------------------|
(The last chord sounds best when strummed upwards.)

I dedicate this one to my twin brother. This is our theme song right here.


************************************

| /   slide up
| \   slide down
| h   hammer-on
| p   pull-off
| ~   vibrato
| +   harmonic
| x   Mute note
| b   Bend
| pb  Pre-bend
| br  Bend release
| pbr Pre-bend release
| brb Bend release bend

************************************
Добавлено: 15.08.2015
Другие материалы по этой песне:
  • Аккорды и текст

Страница создана 09.05.2012
http://primanota.ru/rob-base/it-takes-two-chords.htm
Привет, Гость.
Предлагаем пройти революционный курс по гитаре.
Подарок от PrimaNota.Ru, забирай!