PrimaNota.ru - самый крупный в мире бесплатный архив песенных текстов, аккордов, табулатур и нот


Roadrunner United - Your mother - таба, видео

Регистрация Запомнить меня
Войти через:  Facebook Google Twitter Vk Yandex Mail.ru

Roadrunner United - Your mother - таба, видео

Печатать
Просмотров: 64



e[-----------------------------------------24]
b[-------------------------------------------]
g[-------------------------------------------]
d[-------------------------------------------]
a[2-2-2-2-2-2-2-4-4-4-4-4-4-4-4-4-4-4-3-3-3-3]
e[1-1-1-1-1-1-1-2-2-2-2-2-6-6-6-6-6-6-1-1-1-1]


e[22--21-21--23--24-16--17-18-14---12--12-12-]
b[--12-----12--6------16--------19---12------]
g[-------------------------------------------]
d[-------------------------------------------]
a[-------------------------------------------]
e[-------------------------------------------]

Добавлено: 10.08.2013
Другие материалы по этой песне:
  • Аккорды и текст

Страница создана 10.08.2013
http://primanota.ru/roadrunner-united/your-mother-chords.htm
Привет, Гость.
Предлагаем пройти революционный курс по гитаре.
Подарок от PrimaNota.Ru, забирай!