PrimaNota.ru - самый крупный в мире бесплатный архив песенных текстов, аккордов, табулатур и нот


Roach - Burned Up - таба, видео

Регистрация Запомнить меня
Войти через:  Facebook Google Twitter Vk Yandex Mail.ru

Roach - Burned Up - таба, видео

Печатать
Просмотров: 69
Уроки эстрадного вокала в Санкт-Петербурге
Heres my roach tab

Intro Riff
e |----------------------------------------|
B |----------------------------------------|
G |----------------------------------------|
D |--5-5-5--7------------------------------|
A |------------5-5-5---7-7--7-7--7-7-------| =20
D |----------------------------------------|


e |----------------------------------------|
B |----------------------------------------|
G |----------------------------------------|
D |--3-0-0--0------------------------------|
A |------------5-5-2---5-1--0-7--7-7-------| =20
D |----------------------------------------|

Second Riff
e |----------------------------------------|
B |----------------------------------------|
G |----------------------------------------|
D |--5-5-5--7------------------------------|
A |------------1-5-5---1-7--7-7--7-9

e |----------------------------------------|
B |----------------------------------------|
G |----------------------------------------|
D |--5-5-5--7------------------------------|
A |------------5-5-5---7-7--7-7--7-7-------| =20
D |----------------------------------------|


Repete 2 Times (End)



     
Добавлено: 20.08.2013
Другие материалы по этой песне:
  • Аккорды и текст

Страница создана 20.08.2013
http://primanota.ru/roach/burned-up-chords.htm
Привет, Гость.
Предлагаем пройти революционный курс по гитаре.
Подарок от PrimaNota.Ru, забирай!