PrimaNota.ru - самый крупный в мире бесплатный архив песенных текстов, аккордов, табулатур и нот


Rm Tocak - Ukor Blame - таба, видео

Регистрация Запомнить меня
Войти через:  Facebook Google Twitter Vk Yandex Mail.ru

Rm Tocak - Ukor Blame - таба, видео

Печатать
Просмотров: 83
Уроки эстрадного вокала в Санкт-Петербурге
E------|-----------------------------------------------------------|
H------|------9h10-10-10-10-9---9h10---------------9h10h12-9h10--\-|
G-2/7--|----------------------------10-9-------9h10----------------|
D------|--0-----------------------------12-12----------------------|
A------|-----------------------------------------------------------|
E------|-----------------------------------------------------------|

E------------------------3h5/13-\-------------------------|
H--------------------h3h5--------------5/8-8------h9p8----|
G----------------h2h5---------------------------------10--|
D------------h3h5----------------7--/5--------------------|
A-------0h3h5---------------------------------------------|
E--1--/3--------------------------------------------------|

--------------------------|
-8------------------------|
--10-10-9h10p9-7-9--9-----|
-----------------------7--|
-----------------------0--|
--------------------------|

E-----------------------------------------------------------|
H--9h10-10-10-10h12-9---9h10---------------9h10h12-9h10--\--|
G---------------------------10-9-------9h10-----------------|
D-------------------------------12-12-----------------------|
A-----------------------------------------------------------|
E-----------------------------------------------------------|

E-----------------------------|
H----------------------5/8-8--|
G-----------------------------|
D----3-2-0--------------------|
A----------1--0--3---x--------|
E--1--------3--1-1------------|

---------------------------------------------|
-10---8--8-------8---8-----------------------|
---10--10-10-9h10-10--9h10p9-7-9h10p9--9-----|
------------------------------------------7--|
------------------------------------------0--|
---------------------------------------------|

E-------------------------------------------12---10-----------------|
H-1/8-8---11p10-8----8-----8h10-10--/15-15----13---11---10-9-10--\--|
G----------------10-9-10--------------------------------------------|
D-------------------------------------------------------------------|
A-------------------------------------------------------------------|
E-------------------------------------------------------------------|

E-----------------------9b-9b------10---10----8h10h11p10-8--|
H---------10b-10b-------------------------------------------|
G--10p9--------------7/9------------------------------------|
D------12---------7------------7-7--------------------------|
A-----------------0------------0-0--------------------------|
E-----------------------------------------------------------|

E--10--\---------------------|
H---------11-13-10-----------|
G-----------------12--10-10--|
D----------------------------|
A----------------------------|
E----------------------------|

----------------------------------------------|
----------------------------------------------|
-9h10h12-10-9---------------------------------|
-------------12-11-8--------------------------|
--------------------7h8h10-7-10-8-7-----------|
-----------------------------------10-9--/10--|

E----------------------------9--9----9---10--10--|
H------------10b-10b-----------------------------|
G----10--9-----------9-----9--9----9---9---10----|
D--0------12---------9---7-----------------------|
A--0---------------------7-----------------------|
E------------------------------------------------|

E--12---10----------------------------------------|
H----13---11-13-10-11--10-------------------------|
G--------------------12--10-----------------------|
D--------------------------12-10------------------|
A-------------------------------12-9--------------|
E-----------------------------------10-8-5-2---/--|

E--10--\----------------------------------|
H--------11-13-10-------------------------|
G----------------12--10-10--10h12-9--7-7--|
D-----------------------------------------|
A-----------------------------------------|
E-----------------------------------------|

E-------------------------------------------|
H-------------------------------------------|
G-------------------------------------------|
D--7-7-7-7p6---/7--------------6h7h9-6h7-\--|
A-----------------8p7-------7h8-------------|
E--------------------10-10------------------|

E---------------------------------------------------|
H---------------------------------------------------|
G---------------------------------------------------|
D----0h3h4h5-5p4p3p0-2h3h5----------3/5-5--x-h6p5---|
A-------------------------1-3-0-3----------------8--|
E--1----------------------------1-------------------|

E------------------------12---10--9-7----|
H----------------------------------------|
G---------------------------11--10----2--|
D--5-3-3-2h3p2-0-2h3p2----------------2--|
A---------------------2--------------0---|
E---------------------0------------------|

E---------------------------------------------|
H---------------------------------------------|
G---------------------------------------------|
D--7-7-7-7h6-9p6-7p6-------------6h7h9-6h7-\--|
A-------------------8-7-------7h8-------------|
E----------------------10-10------------------|

E-----------------------------------------------|
H--------------------------3--------------------|
G-----------------------------------------------|
D----5p2-5p3-5p2-5p3-----------3/5------5h6p5---|
A-----------------------3--------------------8--|
E-0h1---------------3\1-1-0---------------------|

E----------------------------------------------------|
H----------------------------------------------------|
G----------------------------------------------------|
D--5-3-3-2h3p2-0-2h3p2----2---3/5-5-5---8p7-5---5----|
A---------------------2---0------------------8p7-88--|
E---------------------0------------------------------|

E------------------------------------------------------------|
H------------------------------------------------------------|
G------7--9p7h9-7--------------------------------------------|
D--/7--8----8----10-8---7p6h7---\--------7/9-7-7----6/11-11--|
A---------------------------------8--7---------0--7----------|
E-------------------------------------10----------5----------|

E-------------------------------------------------------|
H-------------------------------------------------------|
G--------------------------------------7-\-3-5-3p2-0-0--|
D--7-11-11-11h12-12---10h12h13p12p10--------------------|
A--0----------------------------------------------------|
E-------------------------------------------------------|

E----------------------------------------------------------------|
H----------------------------------------------------------------|
G--------0-------------------------------------------------------|
D--33-3---2---2-0-------0-0-2/3-2-0-1/7-7-------7/11---11h12-12--|
A-----3------0--------0-0-0------------------0-0-----------------|
E----------------------------------------------------------------|

E----------------------------------------3/5------/10--|
H------------------------------------------------------|
G------------------------------------------------------|
D--8-10-7-------3---5--/7----5---7---5-----------------|
A--8-----10---\-1---3--/5----5---5---5-----------------|
E------------------------------------------------------|


http://www.progarchives.com/artist.asp?id=2746

http://en.wikipedia.org/wiki/Radomir_Mihajlovi%C4%87
Добавлено: 11.06.2013
Другие материалы по этой песне:
  • Аккорды и текст

Страница создана 11.06.2013
http://primanota.ru/rm-tocak/ukor-blame-chords.htm
Привет, Гость.
Предлагаем пройти революционный курс по гитаре.
Подарок от PrimaNota.Ru, забирай!