PrimaNota.ru - самый крупный в мире бесплатный архив песенных текстов, аккордов, табулатур и нот


Rkl - Were Back Were Pissed - бас-таба, видео

Регистрация Запомнить меня
Войти через:  Facebook Google Twitter Vk Yandex Mail.ru

Rkl - Were Back Were Pissed - бас-таба, видео

Печатать
Просмотров: 53
RKL - WE'RE BACK WE'RE PISSED

G|----------------------------|
D|-4--5-6-7----5----4----5----|
A|----------------------------|
E|----------------------------|

G|---------------4h6h7p6p4p0---------------------|
D|----4h5-7---------------------0-5h7p5-4--------|
A|-5---------------------------------------------|
E|-----------------------------------------------|

G|-------------------|
D|-5-4---------------|
A|-----7-5-0-4-4h5p7-|
E|-------------------|

----------------------------------------------------

G|---6h7h9p7p6---7p6p4h6h7---4h6h7p6p4---4h6h7p6p4-|
D|-7-----------7-----------5-----------5-----------|
A|-------------------------------------------------|
E|-------------------------------------------------|

G|---------------------------------------------|
D|-4-4-------4-4-------5-4-----4-4h5-4-4h5-6-7-|
A|-----7-5-4-----7-5-5-----5h7-----------------|
E|---------------------------------------------|

play x2
---------------------------------------------------

G|----7-7-6-7-9-|
D|-7------------|
A|--------------| x8
E|--------------|

G|----------------7-7-6-7-9----7-7-6-7-9-|
D|-7-----------7------------7------------|
A|---------------------------------------| x4
E|---------------------------------------|

G|----7-7-6-7-9-|
D|-7------------|
A|--------------| x2
E|--------------|

G|-------------------------6h7h9---------------------|
D|-------------------5-0-4-------5--4------5--4------|
A|-7-7-----------4-5-------------------7-5-------7-5-|
E|-----5-5-4-5-7-------------------------------------|

G|--------------------------/12----------------------|
D|--------------------5-5-4------5--4------5--4--5-6-|
A|-0--4-4-5-5-6-6-7-7------------------7-5-----------|
E|---------------------------------------------------|

                   ULTRA FAST
G|---6h7h9p7p6----7-6767674-------------------------|
D|-7-----------7------------7-5--4--------5--4------|
A|----------------------------------7--5--------7-5-|
E|--------------------------------------------------|

G|--------------------11p9-13h14----------------------|
D|-5--4---------14p12------------5--4-------5--4--5-6-|
A|------7-5-4-5------------------------7-5------------|
E|----------------------------------------------------|

G|----7-7-6-7-9-|
D|-7------------|
A|--------------| x8
E|--------------|

G|----------------7-7-6-7-9----7-7-6-7-9-|
D|-7-----------7------------7------------|
A|---------------------------------------| 
E|---------------------------------------|

G|--1212121212121212-1111-------------7-7-6-7-9----7-7-6-7-9-|
D|------------------------1212-10--7------------7------------|
A|-----------------------------------------------------------|
E|-----------------------------------------------------------|

G|----------------------------7-7-6-7-9----7-7-6-7-9-|
D|--5-5-4-4-----5--4--5h6--7------------7------------|
A|----------7-5--------------------------------------|
E|---------------------------------------------------|

G|-------------|
D|-------------|
A|-------------|
E|--12\--------|

G|-----------------|
D|-----------------|
A|-------------2---|
E|-0-32020-3-23-32-|

G|------------------------------------------------------------------|
D|--------------------4-5-5-7-7-7-5-----5-5-5-----------------------|
A|-----------3-2-3--5---------------7-5-------7-5---3-2-3-5---------| x2
E|-5555-3333--------------------------------------8---------2-3-4-5-|

Illegible bass solo

G|----7-7-6-7-9-|
D|-7------------|
A|--------------| x8
E|--------------|

G|-------------------------6h7h9---------------------|
D|-------------------5-0-4-------5--4------5--4------|
A|-7-7-----------4-5-------------------7-5-------7-5-|
E|-----5-5-4-5-7-------------------------------------|

G|--------------------------/12----------------------|
D|--------------------5-5-4------5--4------5--4--5-6-|
A|-0--4-4-5-5-6-6-7-7------------------7-5-----------|
E|---------------------------------------------------|

                   ULTRA FAST
G|---6h7h9p7p6----7-6767674-------------------------|
D|-7-----------7------------7-5--4--------5--4------|
A|----------------------------------7--5--------7-5-|
E|--------------------------------------------------|

G|--------------------11p9-13h14----------------------|
D|-5--4---------14p12------------5--4-------5--4--5-6-|
A|------7-5-4-5------------------------7-5------------|
E|----------------------------------------------------|

G|----7-7-6-7-9-|
D|-7------------|
A|--------------| x8
E|--------------|

G|----------------7-7-6-7-9----7-7-6-7-9-|
D|-7-----------7------------7------------|
A|---------------------------------------| x3 
E|---------------------------------------|

G|--------------------------------|
D|--------------------------------|
A|--------------------------------|
E|-/17\---------------------------|

G|-----------------|
D|-----------------|
A|-------------2---|
E|-0-32020-3-23-32-|

G|------------------------------------------------------------------|
D|--------------------4-5-5-7-7-7-5-----5-5-5-----------------------|
A|-----------3-2-3--5---------------7-5-------7-5---3-2-3-5---------| x2
E|-5555-3333--------------------------------------8---------2-3-4-5-|

Illegible bass solo

G|----7-7-6-7-9-|
D|-7------------|
A|--------------| x8
E|--------------|

G|----------------------------------------------------------------------|
D|--------------------------------------------------------4-----4---6-7-|
A|-22222222-0---0---0-2-3-4-5-44-5-44-5-44-5-6-7-55-7-7-5---7-7---7-----|
E|------------3---3-----------------------------------------------------|

G|------------------|
D|-9-9---7-797------|
A|-----79-9---7-4---|
E|---------------20-|

G|-------------------------------------------------------------|
D|-----------------------------------------------4-----4---6-7-|
A|-0---0---0-2-3-4-5-44-5-44-5-44-5-6-7-55-7-7-5---7-7---7-----|
E|---3---3-----------------------------------------------------|

G|---7h9p7----------------------------|
D|-9------h97-----7h9-----------------|
A|------------7h9-----9p7-9p7p5-9p7p5-|
E|------------------------------------|

G|-------------------------------------------------------------|
D|-----------------------------------------------4-----4---6-7-|
A|-0---0---0-2-3-4-5-44-5-44-5-44-5-6-7-55-7-7-5---7-7---7-----|
E|---3---3-----------------------------------------------------|

G|----------------------|
D|-9-7h9-7-9-7----------|
A|-------------9-7------|
E|-----------------10-7-|

G|-------------------------------------------------------------|
D|-----------------------------------------------4-----4---6-7-|
A|-0---0---0-2-3-4-5-44-5-44-5-44-5-6-7-55-7-7-5---7-7---7-----|
E|---3---3-----------------------------------------------------|

G|-------------------------------------|
D|-------------------------------------|
A|-------------------------------------|
E|-3--3-3-3-3--3-3-3-5--5-5-5-5--5-5-5-|

G|------------------------------9-7-6-5-4-|
D|---------------------7-5-4--------------|
A|---4---4---4-5-7-5-4-------75-----------|
E|-5---5---5------------------------------|

G|----7-7-6-7-9-|
D|-7------------|
A|--------------| x8
E|--------------|

G|-------------------------6h7h9---------------------|
D|-------------------5-0-4-------5--4------5--4------|
A|-7-7-----------4-5-------------------7-5-------7-5-|
E|-----5-5-4-5-7-------------------------------------|

G|---------------------|
D|-5--4-----5--4-5-6-7-|
A|------7-5------------|
E|---------------------|

G|--------------------------------|
D|--------------------------------|
A|--------------------------------|
E|----5---------------------------|

Good luck, you're gonna need it!
Добавлено: 08.08.2013
Другие материалы по этой песне:
  • Аккорды и текст

Страница создана 08.08.2013
http://primanota.ru/rkl/were-back-were-pissed-chords.htm
Привет, Гость.
Предлагаем пройти революционный курс по гитаре.
Подарок от PrimaNota.Ru, забирай!