PrimaNota.ru - самый крупный в мире бесплатный архив песенных текстов, аккордов, табулатур и нот


Rkl - Senseless Violence - таба, видео

Регистрация Запомнить меня
Войти через:  Facebook Google Twitter Vk Yandex Mail.ru

Rkl - Senseless Violence - таба, видео

Печатать
Просмотров: 103
Уроки эстрадного вокала в Санкт-Петербурге
-------------------------------------------------------------------------------
			    SENSELESS VIOLENCE - RKL
-------------------------------------------------------------------------------
blink 182 jacked a riff in this song bass solo
Email:

Tuning: HALF STEP DOWN you can just play a fret over though

e|--------------------------------------------------------------------------------|
B|--------------------------------------------------------------------------------|
G|-------7-----------------------------------------------X5-----------------------|
D|-------7---7-----------2--------------------------------------------------------|
A|-------5---7-----------2--------------------------------------------------------|
E|-----------5-----3b----0--------------------------------------------------------|
3RD TIME YOU DO THIS INTRO SOLO
e|-------------------------------------------------------------|
B|----------------16---------16---------16---------------------|
G|---------15----------15--------15-------15--15--13-----------|
D|------------------------------------------------------13h15--|
A|-------------------------------------------------------------|
E|-------------------------------------------------------------|

e|------------------------------------------------------------------------------|
B|------------------------------------------------------------------------------|
G|------8-----------------------------------------------------------------------|
D|------8-----------------------------------------------------------------------|
A|------6-----------------------------------------------------------------------|
E|------------------------------------------------------------------------------|
bass SOLO

G|---------------------------------------------------------------------------------------|
D|---------------------------------------------------------------------------------------|
A|-----------66-6----88-8----444---------------------------------------------------------|
E|-----44-4------------------------------------------------------------------------------|

e|----------------------------------------------------|
B|----------------------------------------------------|
G|----------------------------------------------------|
D|---------6------6-----------------------------------|
A|---------6------6-----------------------------------|
E|---------4------4--HOLD IT---------------pickslide--|

e|-------F----------------------------B---------------I-----------------------------------------|
B|---------O-----------------------------A---------------N--------------------------------------|
G|-----------L------------------------------S---------------T-----------------------------------|
D|--------------L-----------------------------S----------------R--------------------------------|
A|--------------------O------------------------------------------O------------------------------|
E|--------------------------W----------------------------------WITH POWERCHORDS-----FOR VERSES--|
CHORUS
e|------------------------------------------------------------------------------------|
B|------------------------------------------------------------------------------------|
G|------------------------------------------------------------------------------------|
D|--------6--------------------10-----11---10-----------------------------------------|
A|--------6--------------------10-----11---10-----------------------------------------|
E|--------4--------------------8------9----8------------------------------------------|

e|-----------------------------------------------------------------------------------|
B|-----------------------------------------------------------------------------------|
G|-----------------------------------------------------------------------------------|
D|---------------10---8--------------------------------------------------------------|
A|----6--10--11---8---6--------------------------------------------------------------|
E|----4---8--9-----------------------------------------------------------------------|


|-------------------------------------------------------------------------------
			     SONG NAME - Band Name
-------------------------------------------------------------------------------
Tabbed by:
Email:

Tuning:

e|---------------------------------|
B|---------------------------------|
G|---------------------------------|
D|---------------------------------|
A|---------------------------------|
E|---11---9--7--9--7--5--7-5--3-4--|

e|------------------------------------------------------------------------------------------|
B|------------------------------------------------------------------------------------------|
G|------------------------------------------------------------------------------------------|
D|-----------------888888888888-------------------------------------------------------------|
A|-----------------666666666666----------------------------------------------------    6-4--|
E|-------4-2--------------------------------------------------------------------------------|
chris rest is an amazing guitarist, so good that i cant tell what he is playing in the solo sorry



| /  slide up
| \  slide down
| h  hammer-on
| p  pull-off
| ~  vibrato
| +  harmonic
| x  Mute note
===============================================================================
Добавлено: 23.03.2012
Другие материалы по этой песне:
  • Аккорды и текст

Страница создана 23.03.2012
http://primanota.ru/rkl/senseless-violence-chords.htm
Привет, Гость.
Предлагаем пройти революционный курс по гитаре.
Подарок от PrimaNota.Ru, забирай!