PrimaNota.ru - самый крупный в мире бесплатный архив песенных текстов, аккордов, табулатур и нот


Rkl - Betrayed - бас-таба, видео

Регистрация Запомнить меня
Войти через:  Facebook Google Twitter Vk Yandex Mail.ru

Rkl - Betrayed - бас-таба, видео

Печатать
Просмотров: 75
RKL - BETRAYED

G|------------------------------------------|
D|---------------5--------------------------|
A|---------3-3-5---3/5---3---3-6666-5-3-----|
E|-3-3-3-3-------------6---6------------6-3-|

G|--------------------------------------------|
D|-----5-7-8-7-5------------------------------|
A|---5-----------8-6-5-----3---3-6666-5-3-----|
E|-3-------------------8-6---6------------6-3-|

G|----------------------------------------|
D|---5555---3-5-35------------------------|
A|--------3--------3---3---3-6666-5-3-----|
E|-3-----------------6---6------------6-3-|

G|--------------------------------------------|
D|-----5-7-8-7-5------------------------------|
A|---5-----------8-6-5-----3---3-6----5-------|
E|-3-------------------8-6---6----------------|

--------------------------------------------------

G|-----------------------------------------|
D|---55555-----5---------------------------|
A|---------3h5---5-5-3---3---6666-5-3------|
E|-3-------------------6---6-----------6-3-|

G|--------------------------------------------|
D|-----5-7-8-7-5------------------------------|
A|---5-----------8-6-5-----3---3-6----5-------|
E|-3-------------------8-6---6----------------|

G|----------------------------------------|
D|---5555---3-5-35------------------------|
A|--------3--------3---3---3-6666-5-3-----|     x4
E|-3-----------------6---6------------6-3-|

G|-----------------------------------|
D|------5-3--------------------------|
A|-5--------5-3-------3-----8-88-8-9-| play 8 and 9 just x1 on last time
E|--------------0-1-0----------------|

--------------------------------------------------

G|--------------------------|
D|--------------------------|
A|-1--------------8888-7777-| x4
E|----3--1--0--3------------|

G|-3------------------------|
D|---55-3-------------------|
A|--------3-5---5-3-1-10----|
E|----------------------1-3-|

G|------------------------------------------|
D|---------------5--------------------------|
A|---------3-3-5---3/5---3---3-6666-5-3-----|
E|-3-3-3-3-------------6---6------------6-3-|

G|-----------------------15-14----------------------------------|
D|-----17-17-15-17-15-17-------17-15-17-15----------------------|
A|-----------------------------------------17--13-15-13-15-6--5-|
E|-/15----------------------------------------------------------|

G|----------------------------------------|
D|---5555---3-5-35------------------------|
A|--------3--------3---3---3-6666-5-3-----|     
E|-3-----------------6---6------------6-3-|

G|-----------------------------------|
D|------5-3--------------------------|
A|-5--------5-3-------3-----8-88-8-9-|
E|--------------0-1-0----------------|

--------------------------------------------------

G|-----------------------------------------|
D|---55555-----5---------------------------|
A|---------3h5---5-5-3---3---6666-5-3------|
E|-3-------------------6---6-----------6-3-|

G|--------------------------------------------|
D|-----5-7-8-7-5------------------------------|
A|---5-----------8-6-5-----3---3-6----5-------|
E|-3-------------------8-6---6----------------|

G|----------------------------------------|
D|---5555---3-5-35------------------------|
A|--------3--------3---3---3-6666-5-3-----|     x3
E|-3-----------------6---6------------6-3-|

G|-----------------------------------|
D|------5-3--------------------------|
A|-5--------5-3-------3-----8-88-8-9-| play 8 and 9 just x1 on last time.
E|--------------0-1-0----------------|

--------------------------------------------------

G|--------------------------|
D|--------------------------|
A|-1--------------8888-7777-| x4
E|----3--1--0--3------------|

G|-3------------------------|
D|---55-3-------------------|
A|--------3-5---5-3-1-10----|
E|----------------------1-3-|

G|---------7-7-------8-8-7--------------------------|
D|---7h8p7-----7h8p7-------10-8-7-5-----7h810p8p7---|
A|----------------------------------8-8-----------8-| x1
E|--------------------------------------------------|

SUPER FAST PULL OFF ON ALL 10p8p7s

G|-----------7-7-------8-8-7---------------------------|
D|-5-5-7h8p7-----7h8p7-------10-8-7-5-----7h8h10p8p7---|
A|------------------------------------8-8------------8-| x8
E|-----------------------------------------------------|

G|-----------77-------8-8-7-------------------------------------|
D|-5-5-7h8p7----7h8p7-------10-8-7-5---------10-8-7-------------|
A|-----------------------------------8-8-8-8--------10-10-10-10-| x1
E|--------------------------------------------------------------|

G|-----------8-8-7h87h8-----------------------------|
D|-8-8-8-8-8------------10---7-8-10-8-7-------------|
A|-------------------------8------------10-10-10-10-| x3
E|--------------------------------------------------|

G|-----------8-8-7h87h8-10p8p7----------------------|
D|-8-8-8-8-8-------------------8-10p8p7-------------|
A|--------------------------------------10-10-10-10-|
E|--------------------------------------------------|

G|-----------8-8-7h87h8-----------------------------|
D|-8-8-8-8-8------------10---7-8-10-8-7-------------|
A|-------------------------8------------10-10-10-10-| x3
E|--------------------------------------------------|

G|-----------8-8-7h87h8----88-77--------|
D|-8-8-8-8-8------------10-------10-8-7-|
A|--------------------------------------|
E|--------------------------------------|

G|-8888888-7----12p10-8h10-7h8p7------|
D|-------------------------------8-10-|
A|------------------------------------|
E|------------------------------------|

G|-14p12-10h12-9h10p9--------------------------|
D|--------------------10-12--------------------|
A|-----------------------------3-1-------------|
E|---------------------------------3-1-3-1-0-3-|
Добавлено: 17.09.2013
Вам также может быть интересно:
Другие материалы по этой песне:
  • Аккорды и текст

Страница создана 17.09.2013
http://primanota.ru/rkl/betrayed-chords.htm
Привет, Гость.
Предлагаем пройти революционный курс по гитаре.
Подарок от PrimaNota.Ru, забирай!