PrimaNota.ru - самый крупный в мире бесплатный архив песенных текстов, аккордов, табулатур и нот


Rjd2 - June - таба, видео

Регистрация Запомнить меня
Войти через:  Facebook Google Twitter Vk Yandex Mail.ru

Rjd2 - June - таба, видео

Печатать
Просмотров: 158
-------------------------------------------------------------------------------
                                  JUNE - RJD2
-------------------------------------------------------------------------------
Tabbed by: Robert Piller
Email: nothin7@hotmail.com

Tuning: DGCFAd (down a whole step) if you want it to match the actual pitch
Fun stuff. This is basically a mixture of both guitar parts, with the bass
notes an octave higher (so it's actually playable). 

Riff A:
d|-10-------10-8h10p8-8---7-7-----7h8p7----------------------------------------8----------|
A|----8-----------------8-----8---------8----------------------------------------11-------|
F|------8-----------------0-----0---------7-0---8------8h10p8-8--------10-----------10-10-|
C|--------8-----------------------------------6---10-6----------10-6-8----12-8------------|
G|----------------------------------------------------------------------------------------|
D|----------------------------------------------------------------------------------------|

Riff B:
d|-10-------10-8h10p8-8---7-7-----7h8p7------------------------------------------------|
A|----8-----------------8-----8---------8----------------------------------------------|
F|------8-----------------0-----0---------7-0---8------8h10p8-8--------10--------8-----|
C|--------8-----------------------------------6---10-6----------10-6-8----12-7-6---3/4-|
G|-------------------------------------------------------------------------------------|
D|-------------------------------------------------------------------------------------|

Riff C:
d|-7-7-----7h8p7----------------------------|
A|-----8---------8--------------------------|
F|-0-----0---------7-0---10--------8--------|
C|---------------------8----12-7-6---3/4----|
G|------------------------------------------|
D|------------------------------------------|

Riff D is basically parts of A/B

Here's the song order, roughly:
Riff A: x2
Riff B: x2
Riff C: x4
Riff A: x2
Riff B: x1
Riff D: x1
Riff B: x1
Riff C: x6
Riff D: x2
Riff C: x2
Riff D: until it fades

| /  slide up
| \  slide down
| h  hammer-on
| p  pull-off
| ~  vibrato
| +  harmonic
| x  Mute note
===============================================================================
Добавлено: 28.05.2012
Другие материалы по этой песне:
  • Аккорды и текст

Страница создана 28.05.2012
http://primanota.ru/rjd2/june-chords.htm
Привет, Гость.
Предлагаем пройти революционный курс по гитаре.
Подарок от PrimaNota.Ru, забирай!