PrimaNota.ru - самый крупный в мире бесплатный архив песенных текстов, аккордов, табулатур и нот


Rizzle Kicks - Tell Her - таба, видео

Регистрация Запомнить меня
Войти через:  Facebook Google Twitter Vk Yandex Mail.ru

Rizzle Kicks - Tell Her - таба, видео

Печатать
Просмотров: 153
Main riff Chords
e|-11---11-9----9--11---11--7--7-7-7-----|
B|-9----9--9----9--9----9---9--9-9-9-----|
G|-9----9--9----9--9----9---9--9-9-9-----|
D|---------------------------------------|
A|---------------------------------------|
E|---------------------------------------|


Verse Riff
e|---------------------------------------|
B|---------------------------------------|
G|--8--6p4-----------------8--6p4--------|
D|---------h6--4h6-----------------6-----|
A|---------------------------------------|
E|---------------------------------------|


Prechorus:
e|-----------------------------------------------------------------|
B|-----------------------------------------------------------------|
G|--4-----------------------------4--------------------4-----------|
D|-----6--4--6-----4-----------------6--4--6-----4--6-----6--------|
A|--------------6-----6--4--6-----------------6--------------------|
E|-----------------------------------------------------------------|


e|-----------------------------------------------------------------|
B|-----------------------------------------------------------------|
G|----4------------------------------------------------------------|
D|-------6--4--6-----4---------------------------------------------|
A|--6-------------6-----6--4--6-----4--6--4---2--4--2--------------|
E|-----------------------------------------------------2--4--------|


Chorus:
e|-----------------------------------------------------------------|
B|-----------4---------------4-----------8--6p4--------------------|
G|--2/4--h6----6----2/4--h6----6-----------------6-----------------|
D|-----------------------------------------------------------------|
A|-----------------------------------------------------------------|
E|-----------------------------------------------------------------|
Добавлено: 09.08.2015
Другие материалы по этой песне:
  • Аккорды и текст

Страница создана 09.08.2015
http://primanota.ru/rizzle-kicks/tell-her-chords.htm
Привет, Гость.
Предлагаем пройти революционный курс по гитаре.
Подарок от PrimaNota.Ru, забирай!