PrimaNota.ru - самый крупный в мире бесплатный архив песенных текстов, аккордов, табулатур и нот


Rizzle Kicks - Prophet - бас-таба, видео

Регистрация Запомнить меня
Войти через:  Facebook Google Twitter Vk Yandex Mail.ru

Rizzle Kicks - Prophet - бас-таба, видео

Печатать
Просмотров: 117
Prophet - Rizzle Kicks
-----------------------------------------------------------------
Tuning: E A D G

VERSE
G|----------------------------------------------------------------|
D|----------------1-----1-0-----0---------------------------------|
A|3-----3-1-----1-----------------3-----3-1-----1-----------------| x2
E|------------------------------------------------4-----4-3-----3-|

BRIDGE
G|------------------------0-------------------------------0-------|
D|--------1-----1-3-----3---3-1-0---------1-----1-3-----3---3-1-0-|
A|3-----3-------------------------3-----3-------------------------| x2
E|----------------------------------------------------------------|

CHORUS (can't hear bass but bridge fits if you want to play something)

FILL
G|--------------------------------|
D|----------------1-----1-0-----0-|
A|3-----3-1-----1-----------------|
E|--------------------------------|

VERSE x2
BRIDGE x2
CHORUS 

THEN...
G|5-----5-3-----3-----------------5-----5-3-----3----------------|
D|----------------6-------------------------------6--------------| x3
A|---------------------------------------------------------------|
E|---------------------------------------------------------------|

G|------------------------0-----0-------------------------0-------|
D|--------1-----1-3-----3-----------------1-----1-3-----3---3-1-0-|
A|3-----3-------------------------3-----3-------------------------| x2
E|----------------------------------------------------------------|

CHORUS x3
Добавлено: 04.08.2013
Другие материалы по этой песне:
  • Аккорды и текст

Страница создана 04.08.2013
http://primanota.ru/rizzle-kicks/prophet-chords.htm
Привет, Гость.
Предлагаем пройти революционный курс по гитаре.
Подарок от PrimaNota.Ru, забирай!