PrimaNota.ru - самый крупный в мире бесплатный архив песенных текстов, аккордов, табулатур и нот


Riz Ortolani - Cannibal Holocaust Theme - таба, видео

Регистрация Запомнить меня
Войти через:  Facebook Google Twitter Vk Yandex Mail.ru

Riz Ortolani - Cannibal Holocaust Theme - таба, видео

Печатать
Просмотров: 418
This is a tab that was made by Geeky Randy, not me! I just want to make this tab more 
to people since a lot of people go to this site.

This is the exact site I got it from: http://cannibalholocaust.net/cgi-
bin/ultimatebb.cgi?ubb=get_topic&f=1&t=000050

I am not affiliated with the site or its owner, just a fan.

This is the original tab:

“CANNIBAL HOLOCAUST (Main Theme)”
Artist: Riz Ortolani
Album: Cannibal Holocaust (1979)
Tabbed & Transcribed by: Geeky Randy (C.S.) - FlickGeek@aol.com

G C D
e|-------------------------------------------0h2-----|
B|---0-------------------------1-----------3-----3---|
G|-----0-------------------------0-------2---------2-|
D|-------0-------0-----------2-----2---0-------------|
A|-----------0-2---2/4/5---3-------------------------|
E|-3-------------------------------------------------|

G C D
e|-------------------------------------------2-------|
B|---0-------------------------1-----------3---3-----|
G|-----0-------------------------0-------2-------2---|
D|-------0-2-0-2-------------2-----2---0-------------|
A|---------------0h2-4/5---3-------------------------|
E|-3-------------------------------------------------|


--THEN--


Strum: G, D, C, D x2
Bm, G, Bm, C, Bm, D

-OR-

G D C D G D C D
e|-3---2-3---5-3-7-5---3---2-3---5-3-7-5-------------|
B|---3-------------------3---------------------------|
G|---------------------------------------------------|
D|---------------------------------------------------|
A|---------------------------------------------------|
E|---------------------------------------------------|

e|-10-7-8-10---8-7-8-12-10---12-10-12-10/--------------|
B|-----------------------------------------------------|
G|-----------------------------------------------------|
D|-----------------------------------------------------|
A|-----------------------------------------------------|
E|-----------------------------------------------------|


These are websites related to the composer since he doesn't have his own site:

http://www.imdb.com/name/nm0006221/

http://www.musicfromthemovies.com/composer.asp?ID=461
Добавлено: 26.03.2012
Другие материалы по этой песне:

Страница создана 02.03.2012
http://primanota.ru/riz-ortolani/cannibal-holocaust-theme-chords.htm
Привет, Гость.
Предлагаем пройти революционный курс по гитаре.
Подарок от PrimaNota.Ru, забирай!