PrimaNota.ru - самый крупный в мире бесплатный архив песенных текстов, аккордов, табулатур и нот


Riverside - Hybrid Times - таба, видео

Регистрация Запомнить меня
Войти через:  Facebook Google Twitter Vk Yandex Mail.ru

Riverside - Hybrid Times - таба, видео

Печатать
Просмотров: 115
Авторы музыки: Riverside
Авторы текста: Mariusz Duda
.------------------------------------.
| Tab by Bauti777                    |
| bauti777@gmail.com                 |
| Artist: Riverside                  |
| Song: Hybrid Times                 |
| Tuning: Standard D Tuning (DGCFAD) |
.____________________________________.

{Guitar enters on 0:58}

     S  S S  S S S S  S    E  E  S S S E  E  S    S  S S S  S S S  S  
D||---------------------|----------------------|---------------------|
A||---------------------|----------------------|---------------------|
F||---------------------|----------------------|---------------------|
C||--4s-3---------------|----------------------|--4s-3---------------|
G||-------4s-5-4-2-4s-5-|--4--4--4-5-2-4--4--2-|-------4-5s-4-2-4s-5-|
D||---------------------|----------------------|---------------------|


  E  E  S S S E  S S S    S S S S H           W.                
-----------------------|-------------------|-------------------|
-----------------------|-------------------|-------------------|
-----------------------|-------------------|-------------------|
--------------6--6-4-6-|-------------------|-------------------|
--4--4--4-5-2----------|--4----------------|-------------------|
-----------------------|-------------------|-------------------|


  S  S S S  S S S  S    E  E  S S S E  E  S    S  S S  S  S S S  S  
---------------------|----------------------|----------------------|
---------------------|----------------------|----------------------|
---------------------|----------------------|----------------------|
--4s-3---------------|----------------------|--4s-3----------------|
-------4-5s-4-2-4s-5-|--4--4--4-5-2-4--4--2-|-------4h-5p-4-2-4s-5-|
---------------------|----------------------|----------------------|


                          PM     PM   PM   PM     PM    
  E  E  S S S E  S S S    S  S S S  S S  S S  S S S  S  
-----------------------|-------------------------------|
-----------------------|-------------------------------|
-----------------------|-------------------------------|
--------------6--6-4-6-|-------------------------------|
--4--4--4-5-2----------|--4------5----7----4------5----|
-----------------------|-------------------------------|


  PM     PM   PM   PM     PM                                                    
  S  S S S  S S  S S  S S S  S    S S S E  E  S S S E     S S S E  E  S S S E   
-------------------------------|-----------------------|-----------------------|
-------------------------------|-----------------------|-----------------------|
-------------------------------|-----------------------|-----------------------|
-------------------------------|--6-6-6-7--9--6-6-6-7--|--6-6-6-7--9--6-6-6-7--|
--4------5----7----4------5----|--4-4-4-5--7--4-4-4-5--|--4-4-4-5--7--4-4-4-5--|
-------------------------------|-----------------------|-----------------------|


  S S S E  E  S S S E     S  S S S  S S S  S    E  E  S S S E  E  S  
-----------------------|---------------------|----------------------|
-----------------------|---------------------|----------------------|
-----------------------|---------------------|----------------------|
--6-6-6-7--9--6-6-6-7--|--4s-3---------------|----------------------|
--4-4-4-5--7--4-4-4-5--|-------4-5s-4-2-4s-5-|--4--4--4-5-2-4--4--2-|
-----------------------|---------------------|----------------------|


  S  S S  S  S S S  S    E  E  S S S E  S S S    E  S  S S S  S S S  S  
----------------------|-----------------------|------------------------|
----------------------|-----------------------|------------------------|
----------------------|-----------------------|------------------------|
--4s-3----------------|--------------6--6-4-6-|-----4s-3---------------|
-------4h-5p-4-2-4s-5-|--4--4--4-5-2----------|--4-------4-5s-4-2-4s-5-|
----------------------|-----------------------|------------------------|


  E  E  S S S E  E  S    S  S S  S  S S S  S    E  E  S S S E  S S S  
----------------------|----------------------|-----------------------|
----------------------|----------------------|-----------------------|
----------------------|----------------------|-----------------------|
----------------------|--4s-3----------------|--------------6--6-4-6-|
--4--4--4-5-2-4--4--2-|-------4h-5p-4-2-4s-5-|--4--4--4-5-2----------|
----------------------|----------------------|-----------------------|


  S S S E  E  S S S E     S S S E  E  S S S E     S S S E  E  S S S E   
-----------------------|-----------------------|-----------------------|
-----------------------|-----------------------|-----------------------|
-----------------------|-----------------------|-----------------------|
--6-6-6-7--9--6-6-6-7--|--6-6-6-7--9--6-6-6-7--|--6-6-6-7--9--6-6-6-7--|
--4-4-4-5--7--4-4-4-5--|--4-4-4-5--7--4-4-4-5--|--4-4-4-5--7--4-4-4-5--|
-----------------------|-----------------------|-----------------------|


  S  S S  S  S S S  S    W.                  W.                
----------------------|-------------------|-------------------|
----------------------|-------------------|-------------------|
----------------------|--6----------------|--L----------------|
--4s-3----------------|--6----------------|--L----------------|
-------4h-5p-4-2-4s-5-|--4----------------|--L----------------|
----------------------|-------------------|-------------------|


  W.                  W.                  W.                  W.                
-------------------|-------------------|-------------------|-------------------|
-------------------|-------------------|-------------------|-------------------|
-------------------|-------------------|-------------------|-------------------|
-------------------|-------------------|-------------------|-------------------|
-------------------|-------------------|-------------------|-------------------|
-------------------|-------------------|-------------------|-------------------|


  W.                  W.                  W.                  W.                
-------------------|-------------------|-------------------|-------------------|
-------------------|-------------------|-------------------|-------------------|
-------------------|-------------------|-------------------|-------------------|
-------------------|-------------------|-------------------|-------------------|
-------------------|-------------------|-------------------|-------------------|
-------------------|-------------------|-------------------|-------------------|


  E  E  S S S E  S S S    E  E  S S S E  S S S    E  E  S S S E  S S S  
-----------------------|-----------------------|-----------------------|
-----------------------|-----------------------|--------------7--6-----|
-----6--4-6-4----------|-----6--4-6-4-7--6-4-6-|-----6--4-6-4------6-6-|
--------------4--6-7-6-|-----------------------|-----------------------|
--4--------------------|--4--------------------|--4--------------------|
-----------------------|-----------------------|-----------------------|


  S S S S S S S S  E  S  S     Q.     E.    S  S S     Q.     E.   S S  S  
---------------------------|-----------------------|----------------------|
--6-----7-----9---10--9-10-|--12------Lb---12-10-9-|--10------Lb---7-9-10-|
----6-6---6-6---6----------|-----------------------|----------------------|
---------------------------|-----------------------|----------------------|
---------------------------|-----------------------|----------------------|
---------------------------|-----------------------|----------------------|


  Q.     E.  S S  S    S S Q.     E  S S    E   H         E   
--------------------|--------------------|----------------7--|
--9------L---7-9-10-|--9-7-----------5-7-|--7b--7b-----------|
--------------------|------6------6------|-------------------|
--------------------|--------------------|-------------------|
--------------------|--------------------|-------------------|
--------------------|--------------------|-------------------|


  |-3-|                                                                  
  S S S S Q    S S S S S    S. T  E  Q.      E       H         E   S  S  
-------------------------|-----------------------|------------13--14-17-|
--5-7-5---5----L-7-5---5-|--7--7s-9--7------12s--|--14------------------|
--------6------------6---|-----------------------|----------------------|
-------------------------|-----------------------|----------------------|
-------------------------|-----------------------|----------------------|
-------------------------|-----------------------|----------------------|


   E   Q.      E   E      E   Q.      E   E     E  E  S S S E  S S S  
--14--13----------13--|----------------------|-----------------------|
--------------15------|--15--14------12--14--|-----------------------|
----------------------|----------------------|-----6--4-6-4----------|
----------------------|----------------------|--------------4--6-7-6-|
----------------------|----------------------|--4--------------------|
----------------------|----------------------|-----------------------|


                                 PM PM PM PM PM PM          
  E  E  S S S E  S S S      S  S S  S  S  S  S  S  S S S S  
-----------------------||----------------------------------|
-----------------------||----------------------------------|
-----6--4-6-4----------||*---------------------------------|
--------------4--6-7-6-||*--4s-6-6--6--6--6--6--6----------|
--4--------------------||---2s-4-4--4--4--4--4--4----------|
-----------------------||----------------------------------|


       PM PM PM PM PM PM              PM PM PM PM PM PM          
  S  S S  S  S  S  S  E  S E     S  S S  S  S  S  S  S  S S S S  
------------------------------|---------------------------------|
------------------------------|---------------------------------|
------------------------------|---------------------------------|
--4s-6-6--6--6--6--6--6--4-7--|--4s-6-6--6--6--6--6--6----------|
--2s-4-4--4--4--4--4--4--2-5--|--2s-4-4--4--4--4--4--4----------|
------------------------------|---------------------------------|


       PM PM PM PM PM PM PM PM                                  
  S  S S  S  S  S  S  E  S  E     H.              H.            
-------------------------------|---------------|---------------|
-------------------------------|---------------|---------------|
-------------------------------|--7------------|--7------------|
--4s-6-6--6--6--6--6--6--4--7--|--7------------|--7------------|
--2s-4-4--4--4--4--4--4--2--5--|--5------------|--5------------|
-------------------------------|---------------|---------------|


       PM PM PM PM PM PM                 PM PM PM PM PM PM         
  S  S S  S  S  S  S  S  S S S S    S  S S  S  S  S  S  E  S E     
---------------------------------|-------------------------------||
---------------------------------|-------------------------------||
---------------------------------|------------------------------*||
--4s-6-6--6--6--6--6--6----------|--4s-6-6--6--6--6--6--6--4-7--*||
--2s-4-4--4--4--4--4--4----------|--2s-4-4--4--4--4--4--4--2-5---||
---------------------------------|-------------------------------||


  S S S E  E  S S S E     S S S E  E  S S S E     S S S E  E  S S S E   
-----------------------|-----------------------|-----------------------|
-----------------------|-----------------------|-----------------------|
-----------------------|-----------------------|-----------------------|
--6-6-6-7--9--6-6-6-7--|--6-6-6-7--9--6-6-6-7--|--6-6-6-7--9--6-6-6-7--|
--4-4-4-5--7--4-4-4-5--|--4-4-4-5--7--4-4-4-5--|--4-4-4-5--7--4-4-4-5--|
-----------------------|-----------------------|-----------------------|


  S S S E  E  S S S E     H.              H.              S S S E  E  S S S E   
-----------------------|---------------|---------------|-----------------------|
-----------------------|---------------|---------------|-----------------------|
-----------------------|--7------------|--7------------|-----------------------|
--6-6-6-7--9--6-6-6-7--|--7------------|--7------------|--6-6-6-7--9--6-6-6-7--|
--4-4-4-5--7--4-4-4-5--|--5------------|--5------------|--4-4-4-5--7--4-4-4-5--|
-----------------------|---------------|---------------|-----------------------|


  S S S E  E  S S S E     S S S E  E  S S S E     S S S E  E  S S S E   
-----------------------|-----------------------|-----------------------|
-----------------------|-----------------------|-----------------------|
-----------------------|-----------------------|-----------------------|
--6-6-6-7--9--6-6-6-7--|--6-6-6-7--9--6-6-6-7--|--6-6-6-7--9--6-6-6-7--|
--4-4-4-5--7--4-4-4-5--|--4-4-4-5--7--4-4-4-5--|--4-4-4-5--7--4-4-4-5--|
-----------------------|-----------------------|-----------------------|


  S S S E  E  S S S E     S S S E  E  S S S E     H.              H.            
-----------------------|-----------------------|---------------|---------------|
-----------------------|-----------------------|---------------|---------------|
-----------------------|-----------------------|--7------------|--7------------|
--6-6-6-7--9--6-6-6-7--|--6-6-6-7--9--6-6-6-7--|--7------------|--7------------|
--4-4-4-5--7--4-4-4-5--|--4-4-4-5--7--4-4-4-5--|--5------------|--5------------|
-----------------------|-----------------------|---------------|---------------|


  H.              E  E  S E  E  S E     E  S S S E  E  S S S  
---------------|---------------------|-----------------------|
---------------|---------------------|-----------------------|
---------------|-----4--6------------|-----------------------|
---------------|-------------2--4----|-----2-2-4-------2-4---|
---------------|--4-------4-------2--|--4--------2--4------4-|
---------------|---------------------|-----------------------|


  E  E  S E  E  S E     E  S S S E  E  S E     E  E  S E  E  S E   
---------------------|----------------------|---------------------|
---------------------|----------------------|---------------------|
-----4--6------------|----------------------|-----4--6------------|
-------------2--4----|-----2-2-4----5----4--|-------------2--4----|
--4-------4-------2--|--4--------2-----2----|--4-------4-------2--|
---------------------|----------------------|---------------------|


  E  S S S E  E  S S S    E  E  S E  E  S E     E  E  S E  E  S E   
-----------------------|---------------------|---------------------|
-----------------------|---------------------|---------------------|
-----------------------|-----4--6------------|-----4--6------------|
-----2-2-4-------2-4---|-------------2--4----|-------------2--4----|
--4--------2--4------4-|--4-------4-------2--|--4-------4-------2--|
-----------------------|---------------------|---------------------|


  E  S S S E  E  S S S    E  E  S E  E  S E     E  S S S E  E  S E   
-----------------------|---------------------|----------------------|
-----------------------|---------------------|----------------------|
-----------------------|-----4--6------------|----------------------|
-----2-2-4-------2-4---|-------------2--4----|-----2-2-4----5----4--|
--4--------2--4------2-|--4-------4-------2--|--4--------2-----2----|
-----------------------|---------------------|----------------------|


  E  E  S E  E  S E     E  S S S E  E  S S S    E  E  S E  E  S E   
---------------------|-----------------------|---------------------|
---------------------|-----------------------|---------------------|
-----4--6------------|-----------------------|-----4--6------------|
-------------2--4----|-----2-2-4-------2-4---|-------------2--4----|
--4-------4-------2--|--4--------2--4------2-|--4-------4-------2--|
---------------------|-----------------------|---------------------|


                                PM PM PM PM PM PM          
  E  S S S E  E  S E       S  S S  S  S  S  S  S  S S S S  
----------------------||----------------------------------|
----------------------||----------------------------------|
----------------------||*---------------------------------|
-----2-2-4----5----4--||*--4s-6-6--6--6--6--6--6----------|
--4--------2-----2----||---2s-4-4--4--4--4--4--4----------|
----------------------||----------------------------------|


       PM PM PM PM PM PM              PM PM PM PM PM PM          
  S  S S  S  S  S  S  E  S E     S  S S  S  S  S  S  S  S S S S  
------------------------------|---------------------------------|
------------------------------|---------------------------------|
------------------------------|---------------------------------|
--4s-6-6--6--6--6--6--6--4-7--|--4s-6-6--6--6--6--6--6----------|
--2s-4-4--4--4--4--4--4--2-5--|--2s-4-4--4--4--4--4--4----------|
------------------------------|---------------------------------|


       PM PM PM PM PM PM PM PM                                  
  S  S S  S  S  S  S  E  S  E     H.              H.            
-------------------------------|---------------|---------------|
-------------------------------|---------------|---------------|
-------------------------------|--7------------|--7------------|
--4s-6-6--6--6--6--6--6--4--7--|--7------------|--7------------|
--2s-4-4--4--4--4--4--4--2--5--|--5------------|--5------------|
-------------------------------|---------------|---------------|


       PM PM PM PM PM PM                 PM PM PM PM PM PM         
  S  S S  S  S  S  S  S  S S S S    S  S S  S  S  S  S  E  S E     
---------------------------------|-------------------------------||
---------------------------------|-------------------------------||
---------------------------------|------------------------------*||
--4s-6-6--6--6--6--6--6----------|--4s-6-6--6--6--6--6--6--4-7--*||
--2s-4-4--4--4--4--4--4----------|--2s-4-4--4--4--4--4--4--2-5---||
---------------------------------|-------------------------------||


  S S S E  E  S S S E     S S S E  E  S S S E     S S S E  E  S S S E   
-----------------------|-----------------------|-----------------------|
-----------------------|-----------------------|-----------------------|
-----------------------|-----------------------|-----------------------|
--6-6-6-7--9--6-6-6-7--|--6-6-6-7--9--6-6-6-7--|--6-6-6-7--9--6-6-6-7--|
--4-4-4-5--7--4-4-4-5--|--4-4-4-5--7--4-4-4-5--|--4-4-4-5--7--4-4-4-5--|
-----------------------|-----------------------|-----------------------|


  S S S E  E  S S S E     E.  E  E.  Q.        E.  E  E.  Q.      
-----------------------|--------------------|--------------------|
-----------------------|--------------------|--------------------|
-----------------------|--9---9-------------|--9---9-------------|
--6-6-6-7--9--6-6-6-7--|--9---9-------------|--9---9-------------|
--4-4-4-5--7--4-4-4-5--|--7---7-------------|--7---7-------------|
-----------------------|--------------------|--------------------|


  E.  E  E.  Q.        E.  E  E.  Q.      
--------------------|--------------------|
--------------------|--------------------|
--9---9-------------|--9---9-------------|
--9---9-------------|--9---9-------------|
--7---7-------------|--7---7-------------|
--------------------|--------------------|


  S S S S S S S S S S S S S S S S S S S S S S S S  
--------------------------------------------------|
--------------------------------------------------|
--------------------------------------------------|
------------------------------------------6-7-6---|
--7-5-7-8-7-5-7-8-7-5-7-8-7-5-7-8-7-5-7-8-------8-|
--------------------------------------------------|


  S S S S S S S S S S S S S S S S S S S S S S S S  
--------------------------------------------------|
--------------------------------------------------|
--------------------------------------------------|
------------------------------------------6-7-6---|
--7-5-7-8-7-5-7-8-7-5-7-8-7-5-7-8-7-5-7-8-------8-|
--------------------------------------------------|


  E.  E  E.  Q.     E.  E  E.  Q.        E.  E  E.  Q.     E.  E  E.  Q.      
--------------------------------------|--------------------------------------|
--------------------------------------|--------------------------------------|
--9---9-------------9---9-------------|--9---9-------------9---9-------------|
--9---9-------------9---9-------------|--9---9-------------9---9-------------|
--7---7-------------7---7-------------|--7---7-------------7---7-------------|
--------------------------------------|--------------------------------------|


  S S S S S S S S S S S S S S S S S S S S S S S S  
--------------------------------------------------|
--------------------------------------------------|
--------------------------------------------------|
------------------------------------------6-7-6---|
--7-5-7-8-7-5-7-8-7-5-7-8-7-5-7-8-7-5-7-8-------8-|
--------------------------------------------------|


  S S S S S S S S S S S S S S S S S S S S S S S S    S S S E  E  S S S E   
--------------------------------------------------|-----------------------|
--------------------------------------------------|-----------------------|
--------------------------------------------------|-----------------------|
------------------------------------------6-7-6---|-----------------------|
--7-5-7-8-7-5-7-8-7-5-7-8-7-5-7-8-7-5-7-8-------8-|--4-4-4-5--7--4-4-4-5--|
--------------------------------------------------|-----------------------|


  S S S E  E  S S S E     S S S S S S S S S S S S S S S S S S S S S S S S  
-----------------------|--------------------------------------------------|
-----------------------|--------------------------------------------------|
-----------------------|--------------------------------------------------|
--6-6-6-7--9--6-6-6-7--|------------------------------------------6-7-6---|
--4-4-4-5--7--4-4-4-5--|--7-5-7-8-7-5-7-8-7-5-7-8-7-5-7-8-7-5-7-8-------8-|
-----------------------|--------------------------------------------------|


  S S S S S S S S S S S S S S S S S S S S S S S S    S S S E  E  S S S E   
--------------------------------------------------|-----------------------|
--------------------------------------------------|-----------------------|
--------------------------------------------------|-----------------------|
------------------------------------------6-7-6---|--6-6-6-7--9--6-6-6-7--|
--7-5-7-8-7-5-7-8-7-5-7-8-7-5-7-8-7-5-7-8-------8-|--4-4-4-5--7--4-4-4-5--|
--------------------------------------------------|-----------------------|


  S S S E  E  S S S E     S S S E  E  S S S E     S S S E  E  S S S E        
-----------------------|-----------------------|-----------------------|----|
-----------------------|-----------------------|-----------------------|----|
-----------------------|-----------------------|-----------------------|----|
--6-6-6-7--9--6-6-6-7--|--6-6-6-7--9--6-6-6-7--|--6-6-6-7--9--6-6-6-7--|----|
--4-4-4-5--7--4-4-4-5--|--4-4-4-5--7--4-4-4-5--|--4-4-4-5--7--4-4-4-5--|----|
-----------------------|-----------------------|-----------------------|----|


  W.                    W.                    W.                 
--9~----------------|--10~----------------|--14~----------------|
--------------------|---------------------|---------------------|
--6~----------------|---7~----------------|--11~----------------|
--------------------|---------------------|---------------------|
--------------------|---------------------|---------------------|
--------------------|---------------------|---------------------|


   Q.       Q.       H.               Q.     S E  S S S S S E  S S S E  S E   
--16~------14~------13~------------|-----------------------------------------|
-----------------------------------|-----------------------------------------|
--13~------11~------10~------------|------------------------4----------------|
-----------------------------------|--6------L-6-----------------------------|
-----------------------------------|--4------L-4--------2-4----4-4-4-5--4-5--|
-----------------------------------|-----------------------------------------|


  Q.     S E  S S S S S E  S S S E  S E   
-----------------------------------------|
-----------------------------------------|
------------------------4----------------|
--6------L-6-----------------------------|
--4------L-4--------2-4----4-4-4-5--4-5--|
-----------------------------------------|


  Q.     S E  S S S S S E  S S S E  S E   
-----------------------------------------|
-----------------------------------------|
------------------------4----------------|
--6------L-6-----------------------------|
--4------L-4--------2-4----4-4-4-5--4-5--|
-----------------------------------------|


  Q.     S E  S S S S S E  S S S E  S E   
-----------------------------------------|
-----------------------------------------|
------------------------4----------------|
--6------L-6-----------------------------|
--4------L-4--------2-4----4-4-4-5--4-5--|
-----------------------------------------|


  S S E  S S S E  S E  S S E  S S S E  S E   
--------------------------------------------|
--------------------------------------------|
------4--------------------4----------------|
--------------------------------------------|
--2-4----4-4-4-5--4-5--2-4----4-4-4-5-------|
--------------------------------------------|


  S S E  S S S E  S E  S S E  S S S E  S E   
--------------------------------------------|
--------------------------------------------|
------4--------------------4----------------|
--------------------------------------------|
--2-4----4-4-4-5--4-5--2-4----4-4-4-5-------|
--------------------------------------------|


                                                         <                  
  S S E  S S S E  S E  S S E  S S S E  S E               W                  
--------------------------------------------|----|----|--9\----------------|
--------------------------------------------|----|----|--------------------|
------4--------------------4----------------|----|----|--------------------|
--------------------------------------------|----|----|--------------------|
--2-4----4-4-4-5--4-5--2-4----4-4-4-5-------|----|----|--------------------|
--------------------------------------------|----|----|--------------------|


                  <                                            <    
                  W                         E  E  E.  E.  E.   E.   
----|----|----|--11b----------------|----|--------------------16---|
----|----|----|---------------------|----|-------------------------|
----|----|----|---------------------|----|-------------------------|
----|----|----|---------------------|----|-------------------------|
----|----|----|---------------------|----|-------------------------|
----|----|----|---------------------|----|-------------------------|


                                 <                                
   W                             W                                
--15----------------|----|----|-------------------|----|----|----|
--------------------|----|----|-------------------|----|----|----|
--------------------|----|----|--6----------------|----|----|----|
--------------------|----|----|--6----------------|----|----|----|
--------------------|----|----|--4----------------|----|----|----|
--------------------|----|----|-------------------|----|----|----|


    PM   PM PM   PM   PM PM   PM   PM PM   PM  
    S  S S  S  S S  S S  S  S S  S S  S  S S   
|---------------------------------------------|
|---------------------------------------------|
|*--------------------------------------------|
|*--------------------------------------------|
|---4----4--4----4----4--4----4----4--4----4--|
|---------------------------------------------|


    PM PM   PM   PM PM   PM   PM PM   PM    
  S S  S  S S  S S  S  S S  S S  S  S S  S  
-------------------------------------------|
-------------------------------------------|
-------------------------------------------|
-------------------------------------------|
----4--4----4----4--4----4----4--4----4----|
-------------------------------------------|


  PM PM   PM   PM PM   PM   PM PM   PM   PM  
  S  S  S S  S S  S  S S  S S  S  S S  S S   
--------------------------------------------|
--------------------------------------------|
--------------------------------------------|
--------------------------------------------|
--4--4----4----4--4----4----4--4----4----4--|
--------------------------------------------|


  PM   PM   PM PM   PM   PM PM      
  S  S S  S S  S  S S  S S  S  S  3x
----------------------------------||
----------------------------------||
---------------------------------*||
---------------------------------*||
--4----4----4--4----4----4--4-----||
----------------------------------||


  PM   PM PM   PM   PM PM   PM   PM PM   PM  
  S  S S  S  S S  S S  S  S S  S S  S  S S   
--------------------------------------------|
--------------------------------------------|
--------------------------------------------|
--6----6--6----6----6--6----6----6--6----6--|
--4----4--4----4----4--4----4----4--4----4--|
--------------------------------------------|


    PM PM   PM   PM PM   PM   PM PM   PM    
  S S  S  S S  S S  S  S S  S S  S  S S  S  
-------------------------------------------|
-------------------------------------------|
-------------------------------------------|
----6--6----6----6--6----6----6--6----6----|
----4--4----4----4--4----4----4--4----4----|
-------------------------------------------|


  PM PM   PM   PM PM   PM   PM PM   PM   PM    PM   PM   PM PM   PM   PM PM    
  S  S  S S  S S  S  S S  S S  S  S S  S S     S  S S  S S  S  S S  S S  S  S  
--------------------------------------------|---------------------------------|
--------------------------------------------|---------------------------------|
--------------------------------------------|---------------------------------|
--6--6----6----6--6----6----6--6----6----6--|--6----6----6--6----6----6--6----|
--4--4----4----4--4----4----4--4----4----4--|--4----4----4--4----4----4--4----|
--------------------------------------------|---------------------------------|


  PM   PM PM   PM   PM PM   PM   PM PM   PM  
  S  S S  S  S S  S S  S  S S  S S  S  S S   
--------------------------------------------|
--------------------------------------------|
--------------------------------------------|
--6----6--6----6----6--6----6----6--6----6--|
--4----4--4----4----4--4----4----4--4----4--|
--------------------------------------------|


    PM PM   PM   PM PM   PM   PM PM   PM    
  S S  S  S S  S S  S  S S  S S  S  S S  S  
-------------------------------------------|
-------------------------------------------|
-------------------------------------------|
----6--6----6----6--6----6----6--6----6----|
----4--4----4----4--4----4----4--4----4----|
-------------------------------------------|


  PM PM   PM   PM PM   PM   PM PM   PM   PM    PM   PM   PM PM   PM   PM PM    
  S  S  S S  S S  S  S S  S S  S  S S  S S     S  S S  S S  S  S S  S S  S  S  
--------------------------------------------|---------------------------------|
--------------------------------------------|---------------------------------|
--------------------------------------------|---------------------------------|
--6--6----6----6--6----6----6--6----6----6--|--6----6----6--6----6----6--6----|
--4--4----4----4--4----4----4--4----4----4--|--4----4----4--4----4----4--4----|
--------------------------------------------|---------------------------------|


  W                    W                    W                 
  W                    W                    W                 
--7----------------|--10----------------|--13----------------|
--9----------------|--12----------------|--15----------------|
--9----------------|--12----------------|--15----------------|
-------------------|--------------------|--------------------|
-------------------|--------------------|--------------------|
-------------------|--------------------|--------------------|


   W         W           PM PM PM PM PM PM PM PM PM PM PM PM PM PM  
   H         H           S  S  S  S  S  S  S  E  S  S  S  S  S  E   
------------16--------|--------------------------------------------|
--18---------L--------|--------------------------------------------|
--18---------L--------|--------------------------------------------|
----------------------|--------------------------------------------|
----------------------|--2h-4--4--4--2--5--2--4--2--2--5--2--2--4--|
----------------------|--------------------------------------------|


  PM PM PM PM PM PM PM PM PM PM PM PM PM PM  
  S  S  S  S  S  S  S  E  S  S  S  S  S  E   
--------------------------------------------|
--------------------------------------------|
--------------------------------------------|
--------------------------------------------|
--2h-4--4--4--2--5--2--4--2--2--5--2--2--4--|
--------------------------------------------|


  PM PM PM PM PM PM PM PM  PM PM PM PM PM PM   
  S  S  S  S  S  S  S  E   S  S  S  S  S  E    
----------------------------------------------|
----------------------------------------------|
----------------------------------------------|
----------------------------------------------|
--2h-4--4--4--2--5--2--4p--2--2h-5p-2--2--4h--|
----------------------------------------------|


  PM PM PM PM PM PM PM PM PM PM PM PM PM PM  
  S  S  S  S  S  S  S  E  S  S  S  S  S  E   
--------------------------------------------|
--------------------------------------------|
--------------------------------------------|
--------------------------------------------|
--2h-4--4--4--2--5--2--4--2--2--5--2--2--4--|
--------------------------------------------|


  PM PM PM PM PM PM PM PM PM PM PM PM PM PM  
  S  S  S  S  S  S  S  E  S  S  S  S  S  E   
--------------------------------------------|
--------------------------------------------|
--------------------------------------------|
--------------------------------------------|
--2h-4--4--4--2--5--2--4--2--2--5--2--2--4--|
--------------------------------------------|


  PM PM PM PM PM PM PM PM PM PM PM PM PM PM  
  S  S  S  S  S  S  S  E  S  S  S  S  S  E   
--------------------------------------------|
--------------------------------------------|
--------------------------------------------|
--------------------------------------------|
--2h-4--4--4--2--5--2--4--2--2--5--2--2--4--|
--------------------------------------------|


  PM PM PM PM PM PM PM PM PM PM PM PM PM PM  
  S  S  S  S  S  S  S  E  S  S  S  S  S  E   
--------------------------------------------|
--------------------------------------------|
--------------------------------------------|
--------------------------------------------|
--2h-4--4--4--2--5--2--4--2--2--5--2--2--4--|
--------------------------------------------|


  PM PM PM PM PM PM PM PM PM PM PM PM PM PM                             
  S  S  S  S  S  S  S  E  S  S  S  S  S  E        Q.      Q     Q.      
--------------------------------------------|--9g11~-------------------|
--------------------------------------------|-------------9~----L------|
--------------------------------------------|--------------------------|
--------------------------------------------|--------------------------|
--2h-4--4--4--2--5--2--4--2--2--5--2--2--4--|--------------------------|
--------------------------------------------|--------------------------|


  E   E   S   S   S  S  S  S   Q     S S    E.     Q.     S  S S E   E   
-----------------------------------------|------------------------------|
---------14h-16p-14-12-------------------|------------------------------|
-----13----------------13-11br-L~----9-8-|--8br----------------8-9--11--|
-----------------------------------------|--------11------L-11----------|
-----------------------------------------|------------------------------|
-----------------------------------------|------------------------------|


  Q.      Q.     S S  S  S     Q.       S  S Q     Q     
---------------------------|----------------------------|
--9------10--------9-10-12-|--12b------12-10-9----10----|
---------------------------|----------------------------|
---------------------------|----------------------------|
---------------------------|----------------------------|
---------------------------|----------------------------|


     Q.      Q     Q.        E  E   H          E   E    
--9g11~-------------------|--------11br----------------|
-------------9~----L------|-----9--------------9--12b--|
--------------------------|----------------------------|
--------------------------|----------------------------|
--------------------------|----------------------------|
--------------------------|----------------------------|


                  PM PM                                                 
          |--3-|                                                        
  Q.      S  S S  S  S   S E  S  E      Q.       S   Q.        S  E     
------------------------------------|----------------------------------|
--L------12-10-9--------------------|----------------------------------|
-----------------11p-9-----9--9-11--|--11b------16p-11br------21-11br--|
------------------------11----------|----------------------------------|
------------------------------------|----------------------------------|
------------------------------------|----------------------------------|


  Q.      S S  S S  E  E  E        Q.       H         E   
------------------------------|--------------------------|
------------------------------|--/22~------21~--------L--|
--L------11-9----9-11--L--L\--|--------------------------|
--------------11--------------|--------------------------|
------------------------------|--------------------------|
------------------------------|--------------------------|


  S  S  S  S Q    Q.       S  S    Q.      S  H        S   
--------------------------------|-------------------------|
--L-21-22-24-L----Lb------12-10-|--9------10--------------|
--------------------------------|------------11--------L\-|
--------------------------------|-------------------------|
--------------------------------|-------------------------|
--------------------------------|-------------------------|


  E  S  S  E   S  E   E  E   S  E      H.            E  E    
------------------------------------|-----------------------|
----------12--12-12--10--9--10------|-----------------------|
-------------------------------11s--|--9~------------L--9s--|
-----9-11---------------------------|-----------------------|
------------------------------------|-----------------------|
------------------------------------|-----------------------|


                                               NH     NH\1/               
  H.            E  E      H.            E.     S      S E.  H.            
-----------------------|-------------------------|--<>5-L---L------------|
-----------------------|---------------------<>5-|----L-L---L------------|
--6~------------L--6s--|--1~------------L\-------|-----------------------|
-----------------------|-------------------------|-----------------------|
-----------------------|-------------------------|-----------------------|
-----------------------|-------------------------|-----------------------|


  PM PM PM PM PM PM PM PM PM PM PM PM PM PM  
  S  S  S  S  S  S  S  E  S  S  S  S  S  E   
--------------------------------------------|
--------------------------------------------|
--------------------------------------------|
--------------------------------------------|
--2h-4--4--4--2--5--2--4--2--2--5--2--2--4--|
--------------------------------------------|


  PM PM PM PM PM PM PM PM PM PM PM PM PM PM  
  S  S  S  S  S  S  S  E  S  S  S  S  S  E   
--------------------------------------------|
--------------------------------------------|
--------------------------------------------|
--------------------------------------------|
--2h-4--4--4--2--5--2--4--2--2--5--2--2--4--|
--------------------------------------------|


  PM PM PM PM PM PM PM PM PM PM PM PM PM PM  
  S  S  S  S  S  S  S  E  S  S  S  S  S  E   
--------------------------------------------|
--------------------------------------------|
--------------------------------------------|
--------------------------------------------|
--2h-4--4--4--2--5--2--4--2--2--5--2--2--4--|
--------------------------------------------|


  PM PM PM PM PM PM PM PM PM PM PM PM PM PM                                   
  S  S  S  S  S  S  S  E  S  S  S  S  S  E     S S S S S S S E  S S S S S E   
--------------------------------------------|--------------------------------|
--------------------------------------------|--------------------------------|
--------------------------------------------|--------------------------------|
--------------------------------------------|--------------------------------|
--2h-4--4--4--2--5--2--4--2--2--5--2--2--4--|--------------------------------|
--------------------------------------------|--2-4-4-4-2-5-2-4--2-2-5-2-2-4--|


  S S S S S S S E  S S S S S E     S S S S S S S E  S S S S S E   
--------------------------------|--------------------------------|
--------------------------------|--------------------------------|
--------------------------------|--------------------------------|
--------------------------------|--------------------------------|
--------------------------------|--------------------------------|
--2-4-4-4-2-5-2-4--2-2-5-2-2-4--|--2-4-4-4-2-5-2-4--2-2-5-2-2-4--|


  S S S S S S S E  S S S S S E     S S S S S S S E  S S S S S E   
--------------------------------|--------------------------------|
--------------------------------|--------------------------------|
--------------------------------|--------------------------------|
--------------------------------|--------------------------------|
--------------------------------|--------------------------------|
--2-4-4-4-2-5-2-4--2-2-5-2-2-4--|--2-4-4-4-2-5-2-4--2-2-5-2-2-4--|


  S S S S S S S E  S S S S S E     S S S S S S S E  S S S S S E   
--------------------------------|--------------------------------|
--------------------------------|--------------------------------|
--------------------------------|--------------------------------|
--------------------------------|--------------------------------|
--------------------------------|--------------------------------|
--2-4-4-4-2-5-2-4--2-2-5-2-2-4--|--2-4-4-4-2-5-2-4--2-2-5-2-2-4--|


  S S S S S S S E  S S S S S E     W                   W                 
--------------------------------|-------------------|-------------------|
--------------------------------|-------------------|-------------------|
--------------------------------|-------------------|-------------------|
--------------------------------|--6----------------|--L----------------|
--------------------------------|--6----------------|--L----------------|
--2-4-4-4-2-5-2-4--2-2-5-2-2-4--|--4----------------|--L----------------|


  W                   W                  
-------------------|-------------------||
-------------------|-------------------||
-------------------|-------------------||
--L----------------|--L----------------||
--L----------------|--L----------------||
--L----------------|--L----------------||
Добавлено: 06.12.2013
Другие материалы по этой песне:
  • Аккорды и текст

Страница создана 06.12.2013
http://primanota.ru/riverside/hybrid-times-chords.htm
Привет, Гость.
Предлагаем пройти революционный курс по гитаре.
Подарок от PrimaNota.Ru, забирай!