PrimaNota.ru - самый крупный в мире бесплатный архив песенных текстов, аккордов, табулатур и нот


Rivermaya - Faithless - таба, видео

Регистрация Запомнить меня
Войти через:  Facebook Google Twitter Vk Yandex Mail.ru

Rivermaya - Faithless - таба, видео

Печатать
Просмотров: 157
Song: Faithless Acoustic
Artist: Rivermaya
Album: Live and Acoustic
Tabbed by: John Paulo Valenton
Email add: Emotional_core15@yahoo.com

Panoorin nyo nlng 2 sa youtube para mas makuha nyo kung paano 2 tugtugin…

Guitar1: Acoustic Guitar
Guitar2: Nylon Electric Guitar

View nyu nlng sa web layout… para magkasya…

Legends:

x – Dead string
0 – open string
\ - slide down
/ - slide up
h – Hammer on
~ - let it ring


Intro: (wala muna ung guitar2 sa unang part ng intro)

1st part ng intro:

Guitar1: (Strum lng 2 pero timing nlng…)

E|--x-x-x--x-x-x--x-x-x--x-x-x-x--|-x-x-x--x-x-x--x-x-x--x-x-x-x----|
B|--7-7-7--7-7-7--7-7-7--7-7-7-7--|-7-7-7--7-7-7--7-7-7--7-7-7-7----|
G|--6-6-6--6-6-6--6-6-6--6-6-6-6--|-6-6-6--6-6-6--6-6-6--6-6-6-6----|
D|--x-x-x--x-x-x--x-x-x--x-x-x-x--|-x-x-x--x-x-x--x-x-x--x-x-x-x----|
A|--7-7-7--x-x-x--7-7-7--x-x-x-x--|-7-7-7--x-x-x--7-7-7--x-x-x-x----|
E|--x-x-x--7-7-7--x-x-x--7-7-7-7--|-x-x-x--7-7-7--x-x-x--7-7-7-7----|

E|--x-x-x--x-x-x--x-x-x--x-x-x-x--|-x-x--x--x-x-x--12---P-----------|
B|--7-7-7--7-7-7--7-7-7--7-7-7-7--|-7-7--7--9-9-9--12---A-----------|
G|--6-6-6--6-6-6--6-6-6--6-6-6-6--|-6-6--6--8-8-8--11---U-----------|
D|--x-x-x--x-x-x--x-x-x--x-x-x-x--|-x-x--x--x-x-x---x---S-----------|
A|--7-7-7--x-x-x--7-7-7--x-x-x-x--|-7-7--7--9-9-9--12---E-----------|
E|--x-x-x--7-7-7--x-x-x--7-7-7-7--|-x-x--x--x-x-x---x---!-----------|
                                                        Cha, cha, cha…


2nd part ng intro:

Guitar1:

E|-x-x-x--x-x-x--x-x-x--x-x-x-x--|-x-x-x--x-x-x--x-x-x--x-x-x-x----|
B|-7-7-7--7-7-7--7-7-7--7-7-7-7--|-7-7-7--7-7-7--7-7-7--7-7-7-7----|
G|-6-6-6--6-6-6--6-6-6--6-6-6-6--|-6-6-6--6-6-6--6-6-6--6-6-6-6----|
D|-x-x-x--x-x-x--x-x-x--x-x-x-x--|-x-x-x--x-x-x--x-x-x--x-x-x-x----|
A|-7-7-7--x-x-x--7-7-7--x-x-x-x--|-7-7-7--x-x-x--7-7-7--x-x-x-x----|
E|-x-x-x--7-7-7--x-x-x--7-7-7-7--|-x-x-x--7-7-7--x-x-x--7-7-7-7----|

Guitar2: (Papasok na 2 d2 sa 2nd part ng intro)

E|-------------------------------|---------------------------------|
B|-------------------------------|---------------------------------|
G|---9-\-8----14-\-13---9~~------|---9-\-8----14-\-13---9~~--------|
D|---x-\-x-----x-\--x---x~~------|---x-\-x-----x-\--x---x~~--------|
A|---7-\-6----12-\-11---7~~------|---7-\-6----12-\-11---7~~--------|
E|-------------------------------|---------------------------------|

Guitar1:

E|--x-x-x--x-x-x--x-x-x--x-x-x-x--|-x-x--x--x-x-x--12---P-----------|
B|--7-7-7--7-7-7--7-7-7--7-7-7-7--|-7-7--7--9-9-9--12---A-----------|
G|--6-6-6--6-6-6--6-6-6--6-6-6-6--|-6-6--6--8-8-8--11---U-----------|
D|--x-x-x--x-x-x--x-x-x--x-x-x-x--|-x-x--x--x-x-x---x---S-----------|
A|--7-7-7--x-x-x--7-7-7--x-x-x-x--|-7-7--7--9-9-9--12---E-----------|
E|--x-x-x--7-7-7--x-x-x--7-7-7-7--|-x-x--x--x-x-x---x---!-----------|

Guitar2:

E|-------------------------------|---------------------------------|
B|-------------------------------|---------------------------------|
G|---9-\-8----14-\-13---9~~------|---9-\-8----14-\-13---9~~--------|
D|---x-\-x-----x-\--x---x~~------|---x-\-x-----x-\--x---x~~--------|
A|---7-\-6----12-\-11---7~~------|---7-\-6----12-\-11---7~~--------|
E|-------------------------------|---------------------------------|

Verse1:


Guitar1:

E|-x-x-x--x-x-x--x-x-x--x-x-x-x--|-x-x-x--x-x-x--x-x-x--x-x-x-x----|
B|-7-7-7--7-7-7--7-7-7--7-7-7-7--|-7-7-7--7-7-7--7-7-7--7-7-7-7----|
G|-6-6-6--6-6-6--6-6-6--6-6-6-6--|-6-6-6--6-6-6--6-6-6--6-6-6-6----|
D|-x-x-x--x-x-x--x-x-x--x-x-x-x--|-x-x-x--x-x-x--x-x-x--x-x-x-x----|
A|-7-7-7--x-x-x--7-7-7--x-x-x-x--|-7-7-7--x-x-x--7-7-7--x-x-x-x----|
E|-x-x-x--7-7-7--x-x-x--7-7-7-7--|-x-x-x--7-7-7--x-x-x--7-7-7-7----|

Guitar2:

E|-------------------------------|---------------------------------|
B|-------------------------------|---------------------------------|
G|---9-\-8----14-\-13---9~~------|---9-\-8----14-\-13---9~~--------|
D|---x-\-x-----x-\--x---x~~------|---x-\-x-----x-\--x---x~~--------|
A|---7-\-6----12-\-11---7~~------|---7-\-6----12-\-11---7~~--------|
E|-------------------------------|---------------------------------|
   You're so called friend…        You're so called career…

Guitar1:

E|-x-x-x--x-x-x--x-x-x--x-x-x-x--|-x-x-x--x-x-x--x-x-x--x-x-x-x----|
B|-7-7-7--7-7-7--7-7-7--7-7-7-7--|-7-7-7--7-7-7--7-7-7--7-7-7-7----|
G|-6-6-6--6-6-6--6-6-6--6-6-6-6--|-6-6-6--6-6-6--6-6-6--6-6-6-6----|
D|-x-x-x--x-x-x--x-x-x--x-x-x-x--|-x-x-x--x-x-x--x-x-x--x-x-x-x----|
A|-7-7-7--x-x-x--7-7-7--x-x-x-x--|-7-7-7--x-x-x--7-7-7--x-x-x-x----|
E|-x-x-x--7-7-7--x-x-x--7-7-7-7--|-x-x-x--7-7-7--x-x-x--7-7-7-7----|

Guitar2:

E|-------------------------------|---------------------------------|
B|-------------------------------|---------------------------------|
G|---9-\-8----14-\-13---9~~------|---9-\-8----14-\-13---9~~--------|
D|---x-\-x-----x-\--x---x~~------|---x-\-x-----x-\--x---x~~--------|
A|---7-\-6----12-\-11---7~~------|---7-\-6----12-\-11---7~~--------|
E|-------------------------------|---------------------------------|
    The time on your hands…       The lover you cheat on every Monday night…

Guitar1:

E|-x-x-x--x-x-x--x-x-x--x-x-x-x--|-x-x-x--x-x-x--x-x-x--x-x-x-x----|
B|-7-7-7--7-7-7--7-7-7--7-7-7-7--|-7-7-7--7-7-7--7-7-7--7-7-7-7----|
G|-6-6-6--6-6-6--6-6-6--6-6-6-6--|-6-6-6--6-6-6--6-6-6--6-6-6-6----|
D|-x-x-x--x-x-x--x-x-x--x-x-x-x--|-x-x-x--x-x-x--x-x-x--x-x-x-x----|
A|-7-7-7--x-x-x--7-7-7--x-x-x-x--|-7-7-7--x-x-x--7-7-7--x-x-x-x----|
E|-x-x-x--7-7-7--x-x-x--7-7-7-7--|-x-x-x--7-7-7--x-x-x--7-7-7-7----|

Guitar2:

E|-------------------------------|---------------------------------|
B|-------------------------------|---------------------------------|
G|---9-\-8----14-\-13---9~~------|---9-\-8----14-\-13---9~~--------|
D|---x-\-x-----x-\--x---x~~------|---x-\-x-----x-\--x---x~~--------|
A|---7-\-6----12-\-11---7~~------|---7-\-6----12-\-11---7~~--------|
E|-------------------------------|---------------------------------|
  Your sense of protection…        Your chord progressions…

Refrain1:

G#m A G#m A (pause!)    (Do the same tabs in 2nd part of intro))
      You, you had the world… baby, baby yeah…

Verse2: (Do the same tabs in Verse1)

Indebted to no one but your electronic diary…
Well that's impressive, wow pare you're so complete…

Refrain2:

G#m A G#m A            E F#m A–
  Ahhhhhh… Here we go…

Chorus:
                        E   F#m A–                             E   F#m A–
Until we tumble we are faithless, until our senses fail we're faithless…
                        E   F#m A- (pause!)
Until we falter we are faithless, until there's nothing left to hold on to…


Drums!!

Intro2:


Guitar1:

E|--x-x-x-x-x-x-x-0--------------|
B|--x-x-x-x-x-x-x-0--------------|
G|--1-1-1-1-1-1-1-1--1-----------| (4x)
D|--2-2-2-2-2-2-2-2----2~--------|
A|--2-2-2-2-2-2-2-2--------------|
E|--0-0-0-0-0-0-0-0--------------|

Guitar2:

E|-------------------------------|
B|-------------------------------|
G|-------------------------------| (4x)
D|----------7\6------------------|
A|-----7\6-------7~~-------------|
E|-------------------------------|

Verse3: (Do the same tabs in Intro2)

The turn of events, the twister called fate…
You came without warning; they gave you no fucking sign…
Now you've got zero, now you've got nil…

Refrain3:

G#m A G#m A
     How does it feel??!!!


Chorus:


Guitar1: (Timing nlng puh, mabilis 2…)

E|---1212121212--0-0-0-0-0-0-0--0-0-0-0-0-0-0-0-0-0-----|
B|----x-x-x-x-x--0-0-0-0-0-0-0--5-5-5-5-5-5-5-5-5-5-----|
G|-9--9-9-9-9-9--2-2-2-2-2-2-2--6-6-6-6-6-6-6-6-6-6-----|
D|---------------4-4-4-4-4-4-4--7-7-7-7-7-7-7-7-7-7-----|
A|---------------4-4-4-4-4-4-4--7-7-7-7-7-7-7-7-7-7-----|
E|---------------x-x-x-x-x-x-x--x-x-x-x-x-x-x-x-x-x-----|

Guitar2: (e2 nmn mdyo mbagal…)

E|--0-0-0-0-0-0--2-2-2-2-2-2-2--0-0-0-0-0-0-0-0-0-0-----|
B|--0-0-0-0-0-0--2-2-2-2-2-2-2--0-0-0-0-0-0-0-0-0-0-----|
G|--1-1-1-1-1-1--2-2-2-2-2-2-2--6-6-6-6-6-6-6-6-6-6-----|
D|--2-2-2-2-2-2--4-4-4-4-4-4-4--7-7-7-7-7-7-7-7-7-7-----|
A|--2-2-2-2-2-2--4-4-4-4-4-4-4--7-7-7-7-7-7-7-7-7-7-----|
E|--0-0-0-0-0-0--2-2-2-2-2-2-2--5-5-5-5-5-5-5-5-5-5-----|
                                  Until we tumble we are…

Guitar1:

E|---1212121212--0-0-0-0-0-0-0--0-0-0-0-0-0-0-0-0-0-----|
B|----x-x-x-x-x--0-0-0-0-0-0-0--5-5-5-5-5-5-5-5-5-5-----|
G|-9--9-9-9-9-9--2-2-2-2-2-2-2--6-6-6-6-6-6-6-6-6-6-----|
D|---------------4-4-4-4-4-4-4--7-7-7-7-7-7-7-7-7-7-----|
A|---------------4-4-4-4-4-4-4--7-7-7-7-7-7-7-7-7-7-----|
E|---------------x-x-x-x-x-x-x--x-x-x-x-x-x-x-x-x-x-----|

Guitar2:

E|--0-0-0-0-0-0--2-2-2-2-2-2-2--0-0-0-0-0-0-0-0-0-0-----|
B|--0-0-0-0-0-0--2-2-2-2-2-2-2--0-0-0-0-0-0-0-0-0-0-----|
G|--1-1-1-1-1-1--2-2-2-2-2-2-2--6-6-6-6-6-6-6-6-6-6-----|
D|--2-2-2-2-2-2--4-4-4-4-4-4-4--7-7-7-7-7-7-7-7-7-7-----|
A|--2-2-2-2-2-2--4-4-4-4-4-4-4--7-7-7-7-7-7-7-7-7-7-----|
E|--0-0-0-0-0-0--2-2-2-2-2-2-2--5-5-5-5-5-5-5-5-5-5-----|
                                  Until our senses fail we're…

Guitar1:

E|---1212121212--0-0-0-0-0-0-0--0-0-0-0-0-0-0-0-0-0-----|
B|----x-x-x-x-x--0-0-0-0-0-0-0--5-5-5-5-5-5-5-5-5-5-----|
G|-9--9-9-9-9-9--2-2-2-2-2-2-2--6-6-6-6-6-6-6-6-6-6-----|
D|---------------4-4-4-4-4-4-4--7-7-7-7-7-7-7-7-7-7-----|
A|---------------4-4-4-4-4-4-4--7-7-7-7-7-7-7-7-7-7-----|
E|---------------x-x-x-x-x-x-x--x-x-x-x-x-x-x-x-x-x-----|

Guitar2:

E|--0-0-0-0-0-0--2-2-2-2-2-2-2--0-0-0-0-0-0-0-0-0-0-----|
B|--0-0-0-0-0-0--2-2-2-2-2-2-2--0-0-0-0-0-0-0-0-0-0-----|
G|--1-1-1-1-1-1--2-2-2-2-2-2-2--6-6-6-6-6-6-6-6-6-6-----|
D|--2-2-2-2-2-2--4-4-4-4-4-4-4--7-7-7-7-7-7-7-7-7-7-----|
A|--2-2-2-2-2-2--4-4-4-4-4-4-4--7-7-7-7-7-7-7-7-7-7-----|
E|--0-0-0-0-0-0--2-2-2-2-2-2-2--5-5-5-5-5-5-5-5-5-5-----|
                                  Until we falter we are…

Guitar1:
                                      Adlib1:
E|---1212121212--0-0-0-0-0-0-0--0~--|-------------0~----x~----------0~-----|
B|----x-x-x-x-x--0-0-0-0-0-0-0--3~--|-------------2~----x~----------3~-----|
G|-9--9-9-9-9-9--2-2-2-2-2-2-2--2~--|-------------2~----x~----------2~-----|
D|---------------4-4-4-4-4-4-4--0~--|-------------0~----0~----------0~-----|
A|---------------4-4-4-4-4-4-4--x~--|-------------x~----0~----------x~-----|
E|---------------x-x-x-x-x-x-x--x~--|-------------x~----x~----------x~-----|

Guitar2:

E|--0-0-0-0-0-0--2-2-2-2-2-2-2------|--------------------------------------|
B|--0-0-0-0-0-0--2-2-2-2-2-2-2------|--------------------------------------|
G|--1-1-1-1-1-1--2-2-2-2-2-2-2------|-----7-------6~--------7-------9~-----|
D|--2-2-2-2-2-2--4-4-4-4-4-4-4------|-6-7---7-6-7-------6-7---7-6-7--------|
A|--2-2-2-2-2-2--4-4-4-4-4-4-4------|--------------------------------------|
E|--0-0-0-0-0-0--2-2-2-2-2-2-2------|--------------------------------------|

Adlib2:


Guitar1:

E|-0-0-0-0-0-0-0-0-0-0-0-0-0-0-0-0-0-0-0-0-0--------------|
B|-3-3-3-3-3-3-3-3-3-3-3-3-3-3-3-3-3-3-3-3-3--------------|
G|-2-2-2-2-2-2-2-2-2-2-2-2-2-2-2-2-2-2-2-2-2--------------|
D|-0-0-0-0-0-0-0-0-0-0-0-0-0-0-0-0-0-0-0-0-0--------------|
A|-x-x-x-x-x-x-x-x-x-x-x-x-x-x-x-x-x-x-x-x-x--------------|
E|-x-x-x-x-x-x-x-x-x-x-x-x-x-x-x-x-x-x-x-x-x--------------|

Guitar2:

E|------------------------------------------------9-9-9-9-9-9-7------------------------------9-9-9-9-9-9-7----------------------------|
B|-5/7-7-7-7/10-10-10-10-10-10-9-9-9-9-9-7---7-7-----------------10-10-10-10-9-9-9-9-7---7-7---------------10-10-10-10-9-9-9-9-7---7--|
G|-----------------------------------------9-------------------------------------------9-----------------------------------------9----|
D|------------------------------------------------------------------------------------------------------------------------------------|
A|------------------------------------------------------------------------------------------------------------------------------------|
E|------------------------------------------------------------------------------------------------------------------------------------|

Guitar1:

E|-0-0-0-0-0-0-0-0-0-0-0-0-0-0-0-0-0-0-0-0-0-0-0-0-0--P--|
B|-3-3-3-3-3-3-3-3-3-3-3-3-7-7-7-7-7-7-7-7-7-7-7-7-7--A--|
G|-2-2-2-2-2-2-2-2-2-2-2-2-9-9-9-9-9-9-9-9-9-9-9-9-9--U--|
D|-0-0-0-0-0-0-0-0-0-0-0-0-0-0-0-0-0-0-0-0-0-0-0-0-0--S--|
A|-x-x-x-x-x-x-x-x-x-x-x-x-x-x-x-x-x-x-x-x-x-x-x-x-x--E--|
E|-x-x-x-x-x-x-x-x-x-x-x-x-x-x-x-x-x-x-x-x-x-x-x-x-x--!--|

Guitar2:

E|----------------------------------------------------P--|
B|-5h7-5h7-5h7-5h7-5-7-7-5-7-7-5-7-7-5-7-7-5-7-7-5-7--A--|
G|----------------------------------------------------U--|
D|----------------------------------------------------S--|
A|----------------------------------------------------E--|
E|----------------------------------------------------!--|


Chorus:


Guitar1:

E|-0-0-0-0--0-0-0-0-0--0-0-0-0-0-0-0-0-0-0-----|
B|-0-0-0-0--0-0-0-0-0--5-5-5-5-5-5-5-5-5-5-----|
G|-1-1-1-1--2-2-2-2-2--6-6-6-6-6-6-6-6-6-6-----|
D|-2-2-2-2--4-4-4-4-4--7-7-7-7-7-7-7-7-7-7-----|
A|-2-2-2-2--4-4-4-4-4--7-7-7-7-7-7-7-7-7-7-----|
E|-0-0-0-0--x-x-x-x-x--x-x-x-x-x-x-x-x-x-x-----|

Guitar2:

E|-0-0-0-0--2-2-2-2-2--0-0-0-0-0-0-0-0-0-0-----|
B|-0-0-0-0--2-2-2-2-2--0-0-0-0-0-0-0-0-0-0-----|
G|-1-1-1-1--2-2-2-2-2--6-6-6-6-6-6-6-6-6-6-----|
D|-2-2-2-2--4-4-4-4-4--7-7-7-7-7-7-7-7-7-7-----|
A|-2-2-2-2--4-4-4-4-4--7-7-7-7-7-7-7-7-7-7-----|
E|-0-0-0-0--2-2-2-2-2--5-5-5-5-5-5-5-5-5-5-----|


Guitar1:

E|-0-0-0-0--0-0-0-0-0--0-0-0-0-0-0-0-0-0-0-----|
B|-0-0-0-0--0-0-0-0-0--5-5-5-5-5-5-5-5-5-5-----|
G|-1-1-1-1--2-2-2-2-2--6-6-6-6-6-6-6-6-6-6-----|
D|-2-2-2-2--4-4-4-4-4--7-7-7-7-7-7-7-7-7-7-----|
A|-2-2-2-2--4-4-4-4-4--7-7-7-7-7-7-7-7-7-7-----|
E|-0-0-0-0--x-x-x-x-x--x-x-x-x-x-x-x-x-x-x-----|


Guitar2:

E|-------------------------------------------------------------------------|
B|-------------------------------------------------------------------------|
G|-9/-11-11-11-11/-13-13-13-13/-14-14-14-14\-13-13-13-13-------------------|
D|-x/--x--x--x--x/--x--x--x--x/--x--x--x--x\--x--x--x--x---11~~------------|
A|-7/--9--9--9--9/-11-11-11-11/-12-12-12-12\-11-11-11-11----x~~------------|
E|----------------------------------------------------------9~~------------|


Chorus:
                        E   F#m A–                             E   F#m A–
Until we tumble we are faithless, until our senses fail we're faithless…
                        E   F#m-
Until we falter we are faithless…


Coda:

Guitar1:

E|-x~-------------------x--P----------------0~----------------------x-P----x-x-x-x-x---0-0-0-0-0-0-0-0-0-0-0-0-0-0-0-0-0-0-0-0-0-0-0-0--|
B|-x~-------------------x--A----------------0~----------------------x-A----x-x-x-x-x---0-0-0-0-0-0-0-0-0-0-0-0-0-0-0-0-0-0-0-0-0-0-0-0--|
G|-2~-------------------1--U----------------1~----------------------1-U----1-1-1-1-1---1-1-1-1-1-1-1-1-1-1-1-1-1-1-1-1-1-1-1-1-1-1-1-1--|
D|-2~-------------------2--S----------------2~----------------------2-S----2-2-2-2-2---2-2-2-2-2-2-2-2-2-2-2-2-2-2-2-2-2-2-2-2-2-2-2-2--|
A|-0~-------------------2--E----------------2~----------------------2-E----2-2-2-2-2---2-2-2-2-2-2-2-2-2-2-2-2-2-2-2-2-2-2-2-2-2-2-2-2--|
E|-x~-------------------x--^----------------0~----------------------x-^----x-x-x-x-x---0-0-0-0-0-0-0-0-0-0-0-0-0-0-0-0-0-0-0-0-0-0-0-0--|

Guitar2:

E|--------------------------------------------------------------------------------------------------------------------------------------|
B|--------------------------------------------------------------------------------------------------------------------------------------|
G|--------------------------------------------------------------------------------------------------------------------------------------|
D|-----7\6-----7\6-----7\6-----7\6-----7\6-----7\6-----7\6-----7\6-----7\6-----7\6-----7\6-----7\6-----7\6-----7\6-----7\6-----7\6------|
A|-7\6-----7\6-----7\6-----7\6-----7\6-----7\6-----7\6-----7\6-----7\6-----7\6-----7\6-----7\6-----7\6-----7\6-----7\6-----7\6-----7\6--|
E|--------------------------------------------------------------------------------------------------------------------------------------|

in darkness can we plainly see, the hand that

and sets us free…


 Pakirate nlng… ^^
Добавлено: 20.07.2012
Другие материалы по этой песне:
  • Аккорды и текст

Страница создана 20.07.2012
http://primanota.ru/rivermaya/faithless-chords.htm
Привет, Гость.
Предлагаем пройти революционный курс по гитаре.
Подарок от PrimaNota.Ru, забирай!