PrimaNota.ru - самый крупный в мире бесплатный архив песенных текстов, аккордов, табулатур и нот


Rivermaya - Balisong - аккорды и текст, таба, бас-таба, видео

Регистрация Запомнить меня
Войти через:  Facebook Google Twitter Vk Yandex Mail.ru

Rivermaya - Balisong - аккорды и текст, таба, бас-таба, видео

Печатать
Просмотров: 201
Balisong
Rivermaya
Band: Rivermaya
Song:	Balisong
Tabber: Carl Martin Ortega

*This is my first tab so I hope you appreciate it 

Standard Tuning 

A/C# x02120
D x00232/x466xx
C#m7 x46454

INTRO: A/C# D (Piano) 

Verse: 8x
(Listen to the song for the timing)
	C#m7			D	
E-|---------0---------------------
B-|---------5---------------------
G-|---------4---------------7-----
D-|----6--------------------7-----
A-|-4-----------------------5-----
E-|-------------------------------

Chorus (I very sure of this part)
 
   A	 Em     Bm    Dm	
E-|-x----x-----x------x-----
B-|-x----x-----x------6-----
G-|-6----x-----x------7-----
D-|-7----5-----9------7-----
A-|-7----7-----9------5-----
E-|-5----7-----7------x-----


A         Em			  Bm
 Never in my life have I been more sure
   Dm   			      A
So come up to me and close the door
   Em					 Bm
Nobody's made me feel this way before
	  Dm hold 			 C#m7-D-(4x)
You're everything I wanted and more

Adlib: A-Em-Bm-Dm
Outro:        

Dm		    C#m7-D
You're everything I wanted...

Intro
Verse 1
Verse 2
Chorus
Verse 3
Chorus
Adlib	
Chorus	
Outro
Добавлено: 29.05.2012
Другие материалы по этой песне:
  • Аккорды и текст

Страница создана 21.02.2012
http://primanota.ru/rivermaya/balisong-chords.htm
Привет, Гость.
Предлагаем пройти революционный курс по гитаре.
Подарок от PrimaNota.Ru, забирай!