PrimaNota.ru - самый крупный в мире бесплатный архив песенных текстов, аккордов, табулатур и нот


River City High - Free Rides - таба, видео

Регистрация Запомнить меня
Войти через:  Facebook Google Twitter Vk Yandex Mail.ru

River City High - Free Rides - таба, видео

Печатать
Просмотров: 74
!this is all my own work!
'Free Rides' by River City High from 'Won't Turn down'
By: Ricky Tanner (todayandtonight@hotmail.com)
Intro:chords are the same as the verse chords

Intro/verse chords
                                               
e|---------------------------------------------|
B|---------------------------------------------|
G|--6------------------6----------6-6----------|
D|--6-------------8----6----------6-6----------|
A|--4-------------8----4----------3-4----------|
E|----------------6----------------------------|
       Waitin' for you, to see what i see
                                               
e|---------------------------------------------|
B|---------------------------------------------|
G|--6------------------------------------6-----|
D|--6--------------8---------6-----------6-----|
A|--4--------------8---------6-----------4-----|
E|-----------------6---------4-----------------|
    you're on your knees, you look down on everybody

(Repeat the intro/verse chords with this riff over the top)
e|-----------------------------------------9---8---------------------------|
B|---9--9-11-9----9--9-11-9----9--9-11-9/11------9------9--9-11-9--11-9----|
G|-10-10--------10-10--------10-10----------------10--10-10-------8--8-----|
D|-------------------------------------------------------------------------|
A|-------------------------------------------------------------------------|
E|-------------------------------------------------------------------------|
 
CHORUS
e|-------------------------------------------------|
B|-------------------------------------------------|
G|-------------------------------------------------|
D|--4---------6--------------8-----------6~--------|
A|--4---------6--------------8--------8~----6~-4~--|
E|--2---------4--------------6---------------------|
There ain't no free rides...     you got no alibi

e|-------------------------------------------------|
B|-------------------------------------------------|
G|-------------------------------------------------|
D|--4---------6--------------8---------------------|
A|--4---------6--------------8---------------------|
E|--2---------4--------------6---------------------|
You gotta work for it this time...

(Play the chours riff -as above- x2 then end the chorus with the chord
below before moving on)
e|---------------|
B|---------------|
G|---------------|
D|---6666666-----|
A|---6666666-----|
E|---4444444-----|

BRIDGE
e|-------------------------------------------------|
B|-------------------------------------------------|
G|-------------------------------------------------|
D|-6---------------------8--------------4----------|
A|-6---------------------8--------------4----------|
E|-4---------------------6--------------2----------|
   she said, i'll make it, its my world after all x3 
(Play the above riff 4x but only sing "She'll make it..." x3  Then...)

e|-xx-------xx-------xx-----------------------|
B|-xx-------xx-------xx-----------------------|
G|-xx-------xx-------xx-----------------------|
D|-xx-------xx-------xx-----------------------|
A|-xx-43-3--xx-43-3--xx-43-333---888/666------|
E|-xx-21-1--xx-21-1--xx-21-111---666/444------|
e|-xx-------xx-------xx-----------------------|
B|-xx-------xx-------xx-----------------------|
G|-xx-------xx-------xx-----------------------|
D|-xx-------xx-------xx-----------------------|
A|-xx-43-3--xx-43-3--xx-43-333---888/666------|
E|-xx-21-1--xx-21-1--xx-21-111---666/444------|
e|-xx-------xx-------xx-----------------------|
B|-xx-------xx-------xx-----------------------|
G|-xx-65-5--xx-65-5--xx-65-555--101010/888----|
D|-xx-43-3--xx-43-3--xx-43-333---8-8-8/666----|
A|-xx-------xx-------xx-----------------------|
E|-xx-------xx-------xx-----------------------|
e|-xx-------xx-------xx-----------------------|
B|-xx-------xx-------xx-----------------------|
G|-xx-------xx-------xx-----------------------|
D|-xx-------xx-------xx-----------------------|
A|-xx-43-3--xx-43-3--xx-43-333---888/666------|
E|-xx-21-1--xx-21-1--xx-21-111---666/444------|
e|--------------------------------------------|
B|--------------------------------------------|
G|--------------------------------------------|
D|-6---------------------8--------------4-----|
A|-6---------------------8--------------4-----|
E|-4---------------------6--------------2-----|
FINAL CHORUS (LEAD RIFF)
e|------------------------------------------------------------------------|
B|------------9~--9-7-6----------------777-9-7-6-4------------------------|
G|--------6-8------------8-6-5-665-----------------6~-----4/6-4-----------|
D|---6-8-9------------------------6-----------------------------6-4-------|
A|-----------------------------------------------------------------6-4----|
E|---------------------------------------------------------------------6--|
                 SONG ORDER
                   intro
                   verse
                   chorus
                   verse
                   chorus
                   bridge
                   final verse (with lead riff in 2nd bit)
                   outro (repeat the main/verse riff as much as needed)
                   end with...
               e|------------------|
               B|------------------|
               G|------------------|
               D|-4-----6-----8----|
               A|-4-----6-----8----|
               E|-2-----4-----6----|
ENJOY!!!!!!!!!!!
EMAIL ME ANY COMMENTS ETC!!!!!!!!

 

________________________________________________________________________________
     
Добавлено: 16.06.2013
Вам также может быть интересно:
Другие материалы по этой песне:
  • Аккорды и текст

Страница создана 16.06.2013
http://primanota.ru/river-city-high/free-rides-chords.htm
Привет, Гость.
Предлагаем пройти революционный курс по гитаре.
Подарок от PrimaNota.Ru, забирай!