PrimaNota.ru - самый крупный в мире бесплатный архив песенных текстов, аккордов, табулатур и нот


Rival State - Sleep Talker - таба, видео

Регистрация Запомнить меня
Войти через:  Facebook Google Twitter Vk Yandex Mail.ru

Rival State - Sleep Talker - таба, видео

Печатать
Просмотров: 78
-----------------------------------------------------------------------------
                             Sleep Talker - Rival State
-------------------------------------------------------------------------------
Tabbed by: Nimal Fernando
E-mail: nimal@rivalstate.net

Tuning:Standard 

www.rivalstate.net
www.facebook.com/rivalstate

The link for the song is here http://www.youtube.com/watch?v=wGvypWuI0ts

Enjoy

Intro 
e|------------------------------------------------------|
B|------------------------------------------------------|
G|-7-9--------------------------------------------------|
D|-7-9--------------------------------------------------|
A|-5-7-------5-----------5-----------5---------5-----5--|
E|-----7-7-7---7-7-7-7-7---7-7-7-7-7---7-7-6-6---5-5----|

e|------------------------------------------------------|
B|------------------------------------------------------|
G|------------------------------------------------------|
D|---------------------------------------------7-----9--|
A|-----------5-----------5-----------5-----5-5---7-7----|
E|-----7-7-7---7-7-7-7-7---7-7-7-7-7---7-7--------------|

e|------------------------------------------------------|
B|------------------------------------------------------|
G|------------------------------------------------------|
D|------------------------------------------------------|
A|-----------5-----------5-----------5---------5-----5--|
E|-----7-7-7---7-7-7-7-7---7-7-7-7-7---7-7-6-6---5-5----|

e|------------------------------------------------------|
B|------------------------------------------------------|
G|----------------------------------------7-9-----------|
D|----------5-----------5-----------7-----7-9-----------|
A|----------------------------------------5-7-----------|
E|----3-3-3---3-3-3-3-3---3-3-5-5-5---5-5---------------|


Verse 1 - 1/4
e|-x-x----------x---------x-x----------x---------x-x----------x---------x-x-------------|
B|-x-x-12-12----x-7-------x-x-12-12----x-7-------x-x-12-12----x-7-------x-x-12-12-------|
G|-x-x----------x-9b[11]--x-x----------x-9b[11]--x-x----------x-9b[11]--x-x-------7-9---|
D|-x-x-9-9------x---------x-x-9-9------x---------x-x-9-9------x---------x-x-9-9---7-9---|
A|--------------------------------------------------------------------------------5-7---|
E|--------------------------------------------------------------------------------------|

Verse 1 - 2/4
e|-x-x----------x---------x-x----------x---------x-x----------x---------x-x-------------|
B|-x-x-12-12----x-7-------x-x-12-12----x-7-------x-x-15-15----x-12------x-x-10-10-------|
G|-x-x----------x-9b[11]--x-x----------x-9b[11]--x-x----------x-14b[16]-x-x-------7-9---|
D|-x-x-9-9------x---------x-x-9-9------x---------x-x-12-12----x---------x-x-7-7---7-9---|
A|--------------------------------------------------------------------------------5-7---|
E|--------------------------------------------------------------------------------------|

Verse 1 - 3/4
e|-x-x---------x-x---------x-x---------x-x---------x-x---------x-x---------x-x-------------|
B|-x-x-12-12---x-x-7-------x-x-12-12---x-x-7-------x-x-12-12---x-x-7-------x-x-12-12-------|
G|-x-x---------x-x-9b[11]--x-x---------x-x-9b[11]--x-x---------x-x-9b[11]--x-x-------7-9---|
D|-x-x-9-9-----x-x---------x-x-9-9-----x-x---------x-x-9-9-----x-x---------x-x-9-9---7-9---|
A|-----------------------------------------------------------------------------------5-7---|
E|-----------------------------------------------------------------------------------------|

Verse 1 - 4/4
e|-x-x---------x-x---------x-x---------x-x---------x-x---------x-x---------x-x-------------|
B|-x-x-12-12---x-x-7-------x-x-12-12---x-x-7-------x-x-15-15---x-x-12------x-x-10-10-------|
G|-x-x---------x-x-9b[11]--x-x---------x-x-9b[11]--x-x---------x-x-14b[16]-x-x-------7-9---|
D|-x-x-9-9-----x-x---------x-x-9-9-----x-x---------x-x-12-12---x-x---------x-x-7-7---7-9---|
A|-----------------------------------------------------------------------------------5-7---|
E|-----------------------------------------------------------------------------------------|

Pre Chorus 
e|-------------------------------------x-x-x-------|
B|-------------------------------------x-x-x-------|
G|-------------------------------------x-x-x-7-----|
D|-------------------------------------x-x-x-7-----|
A|-------------------------------------x-x-x-5-----|
E|-2-2-2-2-2-2-2-2-2-2-2-2-3-3-3-3-3-3-x-x-x-------|

Chorus 1, Guitar 1 (Rhythm) 
e|-00000000-00000000-33333333-0000-0000--00000000-0000-0000--33333333-0000-----|
B|-00000000-00000000-33333333-0000-0000--00000000-0000-0000--33333333-0000-----|
G|-44444444-22222222-00000000-0000-2222--44444444-6666-7777--00000000-0000-7-9-|
D|-44444444-22222222-00000000-2222-2222--44444444-6666-7777--00000000-2222-7-9-|
A|-22222222-00000000-xxxxxxxx-2222-0000--22222222-4444-5555--xxxxxxxx-2222-5-7-|
E|-xxxxxxxx-xxxxxxxx-33333333-0000-xxxx--xxxxxxxx-xxxx-xxxx--33333333-0000-----|

Chorus 1 Guitar 2 (Lead octaves)
e|---------------------------------------------------------------------------------|
B|---------------------------------------------------------------------------------|
G|-44444444-6666-7777-99999999-1111-1414141414-44444444-6666-7777-444444444444-7-9-|
D|-----------------------------------------------------------------------------7-9-|
A|-22222222-4444-5555-77777777-9999-1212121212-22222222-4444-5555-222222222222-5-7-|
E|---------------------------------------------------------------------------------|

Intro
e|-------------------------------------------------------------------------------------------|
B|-------------------------------------------------------------------------------------------|
G|--------------------------------------------------------------------------------------7-9--|
D|--------------------------------------------------------------------------------------7-9--|
A|--------5-----------5-----------5---------5-----5-------5-----------5-----------5-----5-7--|
E|--7-7-7---7-7-7-7-7---7-7-7-7-7---7-7-6-6---5-5---7-7-7---7-7-7-7-7---7-7-7-7-7---7-7------|

Verse 2 1/4 (palmuted)
e|------------------------------------------------|
B|------------------------------------------------|
G|-444444444444444444444444444444444444444444-7-9-|
D|--------------------------------------------7-9-|
A|--------------------------------------------5-7-|
E|------------------------------------------------|

Verse 2 2/4
e|------------------------------------------------|
B|------------------------------------------------|
G|-444444444444444444444444444444444444444444-7-9-|
D|--------------------------------------------7-9-|
A|--------------------------------------------5-7-|
E|------------------------------------------------|

Verse 2 - 3/4
e|-x-x---------x-x---------x-x---------x-x---------x-x---------x-x---------x-x-------------|
B|-x-x-12-12---x-x-7-------x-x-12-12---x-x-7-------x-x-12-12---x-x-7-------x-x-12-12-------|
G|-x-x---------x-x-9b[11]--x-x---------x-x-9b[11]--x-x---------x-x-9b[11]--x-x-------7-9---|
D|-x-x-9-9-----x-x---------x-x-9-9-----x-x---------x-x-9-9-----x-x---------x-x-9-9---7-9---|
A|-----------------------------------------------------------------------------------5-7---|
E|-----------------------------------------------------------------------------------------|

Verse 2 - 4/4
e|-x-x---------x-x---------x-x---------x-x---------x-x---------x-x---------x-x-------------|
B|-x-x-12-12---x-x-7-------x-x-12-12---x-x-7-------x-x-15-15---x-x-12------x-x-10-10-------|
G|-x-x---------x-x-9b[11]--x-x---------x-x-9b[11]--x-x---------x-x-14b[16]-x-x-------7-9---|
D|-x-x-9-9-----x-x---------x-x-9-9-----x-x---------x-x-12-12---x-x---------x-x-7-7---7-9---|
A|-----------------------------------------------------------------------------------5-7---|
E|-----------------------------------------------------------------------------------------|

Pre Chorus 
e|-------------------------------------x-x-x-------|
B|-------------------------------------x-x-x-------|
G|-------------------------------------x-x-x-7-----|
D|-------------------------------------x-x-x-7-----|
A|-------------------------------------x-x-x-5-----|
E|-2-2-2-2-2-2-2-2-2-2-2-2-3-3-3-3-3-3-x-x-x-------|

Chorus 2, Guitar 1 (Rhythm)
e|-00000000-00000000-33333333-0000-0000--00000000-0000-0000--33333333-0000-0000--|
B|-00000000-00000000-33333333-0000-0000--00000000-0000-0000--33333333-0000-0000--|
G|-44444444-22222222-00000000-0000-2222--44444444-6666-7777--00000000-0000-2222--|
D|-44444444-22222222-00000000-2222-2222--44444444-6666-7777--00000000-2222-2222--|
A|-22222222-00000000-xxxxxxxx-2222-0000--22222222-4444-5555--xxxxxxxx-2222-0000--|
E|-xxxxxxxx-xxxxxxxx-33333333-0000-xxxx--xxxxxxxx-xxxx-xxxx--33333333-0000-0000--|

e|-00000000-00000000-33333333-0000-0000--00000000-0000-0000--33333333-0000---|
B|-00000000-00000000-33333333-0000-0000--00000000-0000-0000--33333333-0000---|
G|-44444444-22222222-00000000-0000-2222--44444444-6666-7777--00000000-0000---|
D|-44444444-22222222-00000000-2222-2222--44444444-6666-7777--00000000-2222---|
A|-22222222-00000000-xxxxxxxx-2222-0000--22222222-4444-5555--xxxxxxxx-2222---|
E|-xxxxxxxx-xxxxxxxx-33333333-0000-xxxx--xxxxxxxx-xxxx-xxxx--33333333-0000---|

Chorus 2, Guitar 2 (Lead octaves)
e|------------------------------------------------------------------------------------------|
B|------------------------------------------------------------------------------------------|
G|-44444444-6666-7777-99999999-1111-1414141414-44444444-6666-7777-4444444-11111111-14141414-|
D|------------------------------------------------------------------------------------------|
A|-22222222-4444-5555-77777777-9999-1212121212-22222222-4444-5555-2222222--9 9 9 9-12121212-|
E|------------------------------------------------------------------------------------------|

e|------------------------------------------------------------------------------------------|
B|------------------------------------------------------------------------------------------|
G|1111111111111111-6666-7777-99999999-6666-7777-44444444-14141414-9999-1111111111111111-6666|
D|------------------------------------------------------------------------------------------|
A|-9 9 9 9 9 9 9 9-4444-5555-77777777-4444-5555-22222222-12121212-7777--9 9 9 9 9 9 9 9-4444|
E|------------------------------------------------------------------------------------------|

Middle bit 1/2
e|-----------x---------12--------------------0-----------------------------------0----------|
B|-----------x-12------12--------------------0-----------------------------------0----------|
G|-----------x-14b[16]-----------------------------------1212\-1212\------------------------|
D|-----------x------------------------------------------------------------------------------|
A|-------5--------------------5---------------------5----1010\-1010\---------5--------------|
E|-7-5-7---7------------7-5-7---7--12-10-9----7-5-7---7---------------7-5-7----7------------|

Middle bit, Guitar 1 2/2
e|--------------------------------------------------------------------xxx----|
B|--------------------------------------------------------------------xxx----|
G|--------------------------------------------------------------------xxx-7--|
D|--------------------------------------------------------------------xxx-7--|
A|-------5-----------5-----------5-----------5------------------------xxx-5--|
E|-7-5-7---7-5-7-5-7---7-5-7-5-7---7-5-7-5-7---7--222222222222-333333-xxx----|

Middle bit, Guitar 2 2/2 (Octaves)
e|------------------------------------------------------------------------------------------xxx---|
B|------------------------------------------------------------------------------------------xxx---|
G|-444444444444-66666666666-777777777777-999999999999-111111111111111111111111-121212121212-xxx-7-|
D|------------------------------------------------------------------------------------------xxx-7-|
A|-222222222222-44444444444-555555555555-777777777777-9 9 9 9 9 9 9 9 9 9 9 9--101010101010-xxx-5-|
E|------------------------------------------------------------------------------------------xxx---|

Drop down chorus 
e|-0----0----3----0----0----0----0-----3---------------------------xxx---|
B|-0----0----3----0----0----0----0-----3---------------------------xxx---|
G|-4----2----0----0----4----6----7-----0--------------222222222222-xxx-7-|
D|-4----2----0----2----4----6----7-----0-222222222222-222222222222-xxx-7-|
A|-2----0----x----2----2----4----5-----x-222222222222-000000000000-xxx-5-|
E|-x----x----3----0----x----x----x-----3-000000000000--------------xxx---|

Chorus 3, Guitar 1 (Rhythm)
e|-00000000-00000000-33333333-0000-0000--00000000-0000-0000--33333333---xxx---xxx--|
B|-00000000-00000000-33333333-0000-0000--00000000-0000-0000--33333333---xxx---xxx--|
G|-44444444-22222222-00000000-0000-2222--44444444-6666-7777--00000000---xxx-22xxx--|
D|-44444444-22222222-00000000-2222-2222--44444444-6666-7777--00000000-22xxx-22xxx--|
A|-22222222-00000000-xxxxxxxx-2222-0000--22222222-4444-5555--xxxxxxxx-22xxx-00xxx--|
E|-xxxxxxxx-xxxxxxxx-33333333-0000-xxxx--xxxxxxxx-xxxx-xxxx--33333333-00xxx---xxx--|

e|-00-00000-00000000-33-33333-0000-0000--00-00000-0000-0000--33333333------------|
B|-00-00000-00000000-33-33333-0000-0000--00-00000-0000-0000--33333333------------|
G|-44-44444-22222222-00-00000-0000-2222--44-44444-6666-7777--00000000--------7-9-|
D|-44-44444-22222222-00-00000-2222-2222--44-44444-6666-7777--00000000-22-xxx-7-9-|
A|-22-22222-00000000-xx-xxxxx-2222-0000--22-22222-4444-5555--xxxxxxxx-22-xxx-5-7-|
E|-xx-xxxxx-xxxxxxxx-33-33333-0000-xxxx--xx-xxxxx-xxxx-xxxx--33333333-00-xxx-----|
-
Chorus 3, Guitar 2 (Lead octaves)
e|---------------------------------------------------------------------------xxx----xxx-----|
B|---------------------------------------------------------------------------xxx----xxx-----|
G|-44444444-6666-7777-99999999-1111-1414141414-44444444-6666-7777-4444444-44-xxx-66-xxx-----|
D|---------------------------------------------------------------------------xxx----xxx-----|
A|-22222222-4444-5555-77777777-9999-1212121212-22222222-4444-5555-2222222-22-xxx-44-xxx-----|
E|---------------------------------------------------------------------------xxx----xxx-----|

e|----------------------------------------------------------------xxx-------|
B|----------------------------------------------------------------xxx-------|
G|-44-4444444444444-44-444444444-6666-44-4444444444444-4444444444-xxx-7-9---|
D|----------------------------------------------------------------xxx-------|
A|-22-2222222222222-22-222222222-4444-22-2222222222222-2222222222-xxx-5-7---|
E|----------------------------------------------------------------xxx-------|

Outro
e|------------------------------------------------------------------------------------------------|
B|------------------------------------------------------------------------------------------------|
G|------------------------------------------------------------------------------------------------|
D|-----------------------------------------------------------------------------------------7-----9|
A|-------5-----------5-----------5---------5-----5-------5-----------5-----------5-----5-5---7-7--|
E|-7-7-7---7-7-7-7-7---7-7-7-7-7---7-7-6-6---5-5---7-7-7---7-7-7-7-7---7-7-7-7-7---7-7------------|

e|-----------------------------------------------------------------------------------------------|
B|-----------------------------------------------------------------------------------------------|
G|-----------------------------------------------------------------------------------------7-9---|
D|-----------------------------------------------------------------------------------------7-9-9-|
A|-----------5-----------5-----------5---------5-----5-------5-----------5-----------7-----5-7-9-|
E|-----7-7-7---7-7-7-7-7---7-7-7-7-7---7-7-6-6---5-5---3-3-3---3-3-3-3-3---3-3-5-5-5---5-5-----7-|



| /   slide up
| \   slide down
| h   hammer-on
| p   pull-off
| ~   vibrato
| +   harmonic
| x   Mute note
| b   Bend
| []  note the bend should sound like
| pb  Pre-bend
| br  Bend release
| pbr Pre-bend release
| brb Bend release bend

************************************
Добавлено: 10.09.2013
Вам также может быть интересно:
Другие материалы по этой песне:
  • Аккорды и текст

Страница создана 10.09.2013
http://primanota.ru/rival-state/sleep-talker-chords.htm
Привет, Гость.
Предлагаем пройти революционный курс по гитаре.
Подарок от PrimaNota.Ru, забирай!