PrimaNota.ru - самый крупный в мире бесплатный архив песенных текстов, аккордов, табулатур и нот


Rival Sons - Young Love - таба, видео

Регистрация Запомнить меня
Войти через:  Facebook Google Twitter Vk Yandex Mail.ru

Rival Sons - Young Love - таба, видео

Печатать
Просмотров: 122
Уроки эстрадного вокала в Санкт-Петербурге
-------------------------------------------------------------------------------
                             Young Love - Rival Sons
-------------------------------------------------------------------------------
Tabbed by:Joe Dott
E-mail:josephdott@hotmail.com

Tuning: Half step down


Sweet tune by an awesome band! Enjoy!

Intro/Main riff
Played throughout verses

d#|------------------------------------------------------------------------------|
A#|------------------------------------------------------------------------------|
F#|------------------------------------------------------------------------------|
C#|--------0h2-----2-----0~------------------------------------------------------|
G#|---0h2-------------2----------------------------------------------------------|
D#|-------------0----------------------------------------------------------------|


Pre-chorus  "nobodys gonna keep me..."

d#|---------------------------------------------------------------------------|
A#|---------------------------------------------------------------------------|
F#|---------------------------------------------------------------------------|
C#|----77--55--44--33---------------------------------------------------------|
G#|----77--55--44--33---------------------------------------------------------|
D#|----55--33--22--11---------------------------------------------------------|


Chorus  "young love..."

d#|---------------------------------------------------------------------------|
A#|-----------------3--33-3-3-3-----------------------------------------------|
F#|-----------------2--22-2-2-2-----------------------------------------------|
C#|---2--22-2-2-2---0--00-0-0-0-----------------------------------------------|
G#|---2--22-2-2-2-------------------------------------------------------------|
D#|---0--00-0-0-0-------------------------------------------------------------|



Verse 2 Main Riff

d#|------------------------------------------------------------------------------|
A#|------------------------------------------------------------------------------|
F#|------------------------------------------------------------------------------|
C#|--------0h2-----2-----0~------------------------------------------------------|
G#|---0h2-------------2----------------------------------------------------------|
D#|-------------0----------------------------------------------------------------|


Pre-chorus  "and we can name our kids..."

d#|---------------------------------------------------------------------------|
A#|---------------------------------------------------------------------------|
F#|---------------------------------------------------------------------------|
C#|----77--55--44--33---------------------------------------------------------|
G#|----77--55--44--33---------------------------------------------------------|
D#|----55--33--22--11---------------------------------------------------------|


Chorus  "young love..."

d#|---------------------------------------------------------------------------|
A#|-----------------3--33-3-3-3-----------------------------------------------|
F#|-----------------2--22-2-2-2-----------------------------------------------|
C#|---2--22-2-2-2---0--00-0-0-0-----------------------------------------------|
G#|---2--22-2-2-2-------------------------------------------------------------|
D#|---0--00-0-0-0-------------------------------------------------------------|


Bridge   "so if I leave with you..."

d#|---------------------------------------------------------------------------|
A#|-----5~--4~--3~------5~--4~--3~--------------------------------------------|
F#|-----4~--3~--2~------4~--3~--2~--------77--66--55--44--33--22--------------|
C#|-----2~--1~--0~------2~--1~--0~--------77--66--55--44--33--22--5-----------|
G#|-----0~--0~--0~------0~--0~--0~--------55--44--33--22--11--00--5-----------|
D#|---------------------------------------------------------------3-----------|



Solo played over main riff

d#|---------------------------------------|
A#|-----12--------------------------------|
F#|-----14b16----14-12--------------------|
C#|---------------------12-14-------------|
G#|---------------------------------------|
D#|---------------------------------------|


d#|---------------------------------------|
A#|---------------------------------------|
F#|--------7------------------------------|
C#|----7-9---9-7-5-----5------------------|
G#|----------------5-7--------------------|
D#|---------------------------------------|


d#|---------------------------------------|
A#|--------12-15p12-----------------------|
F#|-----------------14-12-----------------|
C#|-----14--------------------------------|
G#|---------------------------------------|
D#|---------------------------------------|


d#|-------12------------------------------|
A#|----12----15-----------------15--------|
F#|-------------14b16--14p12-14-----------|
C#|---------------------------------------|
G#|---------------------------------------|
D#|---------------------------------------|


d#|---------------------------------------|
A#|---------------------------------------|
F#|------99-88-77-5-----------------------|
C#|-----------------77-5-7----------------|
G#|---------------------------------------|
D#|---------------------------------------|



d#|---------------------------------------|
A#|-------------15-15----------15-15------|
F#|----12b14~~~~~~~~~--12b14~~~~~~~~------|
C#|---------------------------------------|
G#|---------------------------------------|
D#|---------------------------------------|


d#|------------------------------15~------|
A#|---15-15-15-13-13-13-15-15-15----------|
F#|---------------------------------------|
C#|---------------------------------------|
G#|---------------------------------------|
D#|---------------------------------------|


Chorus  "young love..."

d#|---------------------------------------------------------------------------|
A#|-----------------3--33-3-3-3-----------------------------------------------|
F#|-----------------2--22-2-2-2-----------------------------------------------|
C#|---2--22-2-2-2---0--00-0-0-0-----------------------------------------------|
G#|---2--22-2-2-2-------------------------------------------------------------|
D#|---0--00-0-0-0-------------------------------------------------------------|




ROCK ON!

************************************

| /   slide up
| \   slide down
| h   hammer-on
| p   pull-off
| ~   vibrato/let ring
| +   harmonic
| x   Mute note
| b   Bend

************************************
Добавлено: 19.09.2013
Другие материалы по этой песне:
  • Аккорды и текст

Страница создана 19.09.2013
http://primanota.ru/rival-sons/young-love-chords.htm
Привет, Гость.
Предлагаем пройти революционный курс по гитаре.
Подарок от PrimaNota.Ru, забирай!