PrimaNota.ru - самый крупный в мире бесплатный архив песенных текстов, аккордов, табулатур и нот


Rival Schools - Used For Glue - аккорды и текст, таба, бас-таба, видео

Регистрация Запомнить меня
Войти через:  Facebook Google Twitter Vk Yandex Mail.ru

Rival Schools - Used For Glue - аккорды и текст, таба, бас-таба, видео

Печатать
Просмотров: 137
Авторы: Walter Schreifels, Rival Schools

Used For Glue
Rival Schools
Song : Used For Glue
Band : Rival Schools
Creator : Walter Schreifels
Album : United By Fate
Tab By : Stuart Dunlop (sd__18@hotmail.com)
Notes : Standard Tuning

The Key
~~~~~~~

h: Hammer Down
p: Pull Off Hammer
b: Bend Current String
/: Slide Up
\: Slide Down
x: Scrape Strings
~: let Ring





Intro
~~~~~

Listen out for the timing on the intro

   0:01
   Guitar 1                    Guitar 2    00:10

E|----000~----000~---------| |-------------------------|
B|-33-333~-33-333~--33333--| |---33333333333~-fade out-|
G|-22-222~-22-222~--22222--| |---22222222222~----------|
D|-00-000~-00-000~--00000--| |---00000000000~----------|
A|-------------------------| |-------------------------|
e|-------------------------| |-------------------------|


Interlude – Riff A
~~~~~~~~~~~~~~~~~~

E|--------------|
B|--------------|
G|--------------|
D|--4-444-444---|
A|--4-444-444---|
e|--2-222-222---|





Interlude – Riff B
~~~~~~~~~~~~~~~~~~

E|-----------------|
B|-----------------|
G|-----------------|
D|--4-444-444-444--|
A|--4-444-444-444--|
e|--2-222-222-222--|


Verse
~~~~~

  Guitar 1

E|---------------|
B|---------------|
G|---------------|
D|---7~~\12~~~~--|
A|---7~~\12~~~~--|
e|---5~~\10~~~~--|


Pre-Chorus/Pre-Solo
~~~~~~~~~~~~~~~~~~~

e |--------------------------------|
B |--------5---------------5-------|
G |----0----------------0----------|
D |44---------44~-4-4--------------|
A |--------------------------------|
e |--------------------------------|

Chorus
~~~~~~

Let ring and feedback towards the end

E|--------x-x-------------|
B|--------x-x-------------|
G|--------x-x-------------|
D|---4-4--x-x—5-55-2~~----|
A|---4-4--x-x—5-55-2~~----|
e|---2-2--x-x—3-33-0~~----|

Bridge
~~~~~~

E|---------x-x----------------|
B|---------x-x----------------|
G|---------x-x----------------|
D|---4--4--x-x—5--5-5--2~~----|
A|---4--4--x-x—5--5-5--2~~----|
e|---2--2--x-x—3--3-3--0~~----|







Outro
~~~~~


E|-------------------|
B|-------------------|
G|-------------------|
D|--4444-44-4-444/-0-|
A|--4444-44-4-444/-0-|
e|--2222-22-2-222/-0-|
     
Добавлено: 25.11.2013
Другие материалы по этой песне:

Страница создана 02.03.2012
http://primanota.ru/rival-schools/used-for-glue-chords.htm
Привет, Гость.
Предлагаем пройти революционный курс по гитаре.
Подарок от PrimaNota.Ru, забирай!