PrimaNota.ru - самый крупный в мире бесплатный архив песенных текстов, аккордов, табулатур и нот


Rites Of Spring - Spring - аккорды и текст, видео

Регистрация Запомнить меня
Войти через:  Facebook Google Twitter Vk Yandex Mail.ru

Rites Of Spring - Spring - аккорды и текст, видео

Печатать
Просмотров: 308
Авторы музыки: Rites of Spring
Авторы текста: Guy Picciotto
Spring
Rites Of Spring
-------------------------------------------------------------------------------
                             "Spring" - Rites of Spring
-------------------------------------------------------------------------------
Tabbed by: Sebastián Arashiro (Buenos Aires, Argentina)
Email/MSN: playing.the.angel_@hotmail.com

Tuning: EADGBe

MAIN RIFF:
e|-------------------------------------------------|
B|-------------------------------------------------|
G|3-3-3-3-(3)/7-7-7-7-7/5-5-5-5--------------------|
D|3-3-3-3-(3)/7-7-7-7-7/5-5-5-5-2-2-2-2-2-|
A|1-1-1-1-(1)/5-5-5-5-5/3-3-3-3-2-2-2-2-2-|
E|------------------------------0-0-0-0-0----------|

CHORUS:
e|---------------------------------------|
B|---------------------------------------|
G|7------------7-7--2--------------------|
D|7----7-x-7-x-7-7--2--------------------|
A|5...-5-x-5-x-5-5--0...-----------------|
E|---------------------------------------|
("...Caught At a distance from myself..." Part)

MAIN RIFF (AGAIN):

CHORUS (AGAIN):

BREAK:
e|-----------------------------------------------------------------------------------|
B|-----------------------------------------------------------------------------------|
G|-----------------------------------------------------------------------------------|
D|3----3-----2-----------------------------------------------------------------------|
A|3----3-----2-----------------------------------------------------------------------|
E|2----1-----0-...-------------------------------------------------------------------|

PART 2:
e|--------------------------------------|
B|-----------------------------------9--|
G|7-7-7-7-7-7------------------------9--|
D|7-7-7-7-7-7--7-7-7-7-7-9-9-9-9-9-9-9--|
A|5-5-5-5-5-5--7-7-7-7-7-7-7-7-7-7-7-7--|
E|-------------5-5-5-5-5----------------|

Chorus Again

Then Main Riff Again

Ends with:
e|----------------------------------|
B|----------------------------------|
G|-5-5-5-x-5-5-5-5-x-5-5-5-x-5------|
D|-5-5-5-x-5-5-5-5-x-5-5-5-x-5------|
A|-3-3-3-x-3-3-3-3-x-3-3-3-x---..---|
E|----------------------------------|

_________________________________________________________
Lyrics:

"Caught in time so far away from where our hearts really wanted to be - Reaching out to
a way to get back to where we'd been - And if summer left you dry with nothing left to
- This Time...... Caught at a distance from myself and there was no one there to know - 
could I do? - I have learned sometimes a need can run too deep and we throw away the
we most wanted to keep and inside we lie over and over again - This Time...... If you 
now you'd better learn to believe me when I say I'm going to build a wall around this town 
these hearts and hands."
===============================================================================
Добавлено: 12.04.2012
Вам также может быть интересно:
Другие материалы по этой песне:
  • Аккорды и текст

Страница создана 12.04.2012
http://primanota.ru/rites-of-spring/spring-chords.htm
Привет, Гость.
Предлагаем пройти революционный курс по гитаре.
Подарок от PrimaNota.Ru, забирай!