PrimaNota.ru - самый крупный в мире бесплатный архив песенных текстов, аккордов, табулатур и нот


Rites Of Spring - All There Is - бас-таба, видео

Регистрация Запомнить меня
Войти через:  Facebook Google Twitter Vk Yandex Mail.ru

Rites Of Spring - All There Is - бас-таба, видео

Печатать
Просмотров: 107
Уроки эстрадного вокала в Санкт-Петербурге
Авторы музыки: Rites of Spring
Авторы текста: Guy Picciotto
Amazing track from post hardcore legends
Rites Of Spring, hope you enjoy :)

Bass Intro
G|--------------|
D|-5h7-5h7-5h7--|
A|--------------|
E|--------------|

0.03 - 0.20
G|---------------------------------------------------------------------------|
D|-0-0-00-0-0--------5-5-55-5-5-2-44-2---------------------------------------|
A|------------3-55-3--------------------5-5-55-5-5-4-5-5-55-4-2-0-0-0-0-0-0-0|
E|---------------------------------------------------------------------------| x2

0.21 - 0.27
G|-2-------2p0h2p0-2-------2p0h2p0-------------------------------------------|
D|-----2-5-------------2-5---------------------------------------------------|
A|---------------------------------------------------------------------------|
E|---------------------------------------------------------------------------|

0.28 - 0.46
G|---------5-4-5-4---------5-4-5-4-------------------------------------------|
D|-5-5-5-5---------5-5-5-5---------4-5-4-2p0-4-5-4-2p0-----------------------|
A|---------------------------------------------------------------------------|
E|---------------------------------------------------------------------------|

0.47 - 0.58
G|---------------------------------------------------------------------------|
D|---------------------------------------------------------------------------|
A|-0--5-5-5-4-4-4-2-0--5-5-5-4-4-4-2-0---------------------------------------|
E|---------------------------------------------------------------------------|

They then repeat the whole tab three
times and it finishes on this

G|------------------------------------------------------------------------------|
D|------------------------------------------------------------------------------|
A|-5-5-3/7\5-0------------------------------------------------------------------|
E|------------------------------------------------------------------------------|


| /  slide up
| \  slide down
| h  hammer-on
| p  pull-off
| ~  vibrato
| +  harmonic
| x  Mute note
===============================================================================
Добавлено: 30.12.2015
Другие материалы по этой песне:
  • Аккорды и текст

Страница создана 30.12.2015
http://primanota.ru/rites-of-spring/all-there-is-chords.htm
Привет, Гость.
Предлагаем пройти революционный курс по гитаре.
Подарок от PrimaNota.Ru, забирай!