PrimaNota.ru - самый крупный в мире бесплатный архив песенных текстов, аккордов, табулатур и нот


Ritchie Blackmore - Wind Dance Of Fairies - таба, видео

Регистрация Запомнить меня
Войти через:  Facebook Google Twitter Vk Yandex Mail.ru

Ritchie Blackmore - Wind Dance Of Fairies - таба, видео

Печатать
Просмотров: 139
Уроки эстрадного вокала в Санкт-Петербурге
Title:  Wind Dance Of Fairies
Artist: R. Blackmore
Album:  Blackmore's Kingdom, 1998
_________________________________

I have to admit the rhytm is very and very free and
it's what makes this dance so haunting. If you haven't listened
to the melody ever before, you really should. Accents and their 
changes are as important as the notes themselves.

Timing included is not perfect by any means, it's there just to
give you an idea.

/\ - slide up/down
p  - pull off
h  - hammer on
+  - mute string. try to push it down with right hand fingers
     to produce knocking sound when the string touches highest
     frets. Next chord you produce with polling right hand fingers
     (just like common "pull off")
S  - strum chord
 x>- natural harmonics at fret x
|, - beat marks

To be in tune with record set tuning to GCFBbDG or you can
put capo at the 3rd fret with standard EADGBE

Playing sequence:
 - Parts A through E, guitar 
 - Parts B through D, then B, guitar and flute
 - Part F, guitar 

Presto

Part A, 4/4

   |  ,  |  ,  |  ,  |  ,  |  ,  |  ,  |  ,  |  ,  |  ,  |  ,  |  ,  
||-------------0-----------------------------------------------------
||o--------------3--p0-----0-----------0--------0--------------------
||-----------------4-------------2--------0--------0--------0--------
||-2-------+2--------2--2--------2--0--------2-----------------0-----
||o2-------+2-----------------------------4--------3-----------------
||-0-------+0-----------------------------------------------------2--


 |  ,  |  ,  |  ,  |  ,  |  ,  |  ,  |  ,  |  ,  |  ,  |  ,  |  ,  
-------------------------3p2-0-------------------------------------
-------------------------------3-----------3-----------------------
-------------------------------------4-----------2-----0--2-----0--
-2-/4-\2--0--2-----------------4--------4--------2--------2--------
----------------2-----2------------------------2-0-----------------
-------------------0-----------------------------S-----------------

 |  ,  |  ,  |  ,  |  ,  
-------------------------||
------------------------o||
-0-----------------2-----||
-5--------------4--------||
-3-----------5----------o||
-------------------------||


While repeating, move accent from beat marks to bass notes and speed up
(switch to 3/8); or just play ascending runs as triplets

 |  ,  |  ,    |  ,  |  ,  |  ,  |  ,  |  ,  |  ,  |  ,  |  ,  |  ,  
------------||-0-----------------------------------------------------
------------||o--3--p0-----0--------1-p0--------3--------0--------0--
------------||-----4-------------2-----------4--------2--------0-----	
-2-------+2-||-------2--2----------------/5-------\4-------\2--------
-2-------+2-||o------------------------------------------------------
-0-------+0-||-------------------------------------------------------
                                                   ^second time
                                                   use fast 0h4 
                                                   instead of slide

                                     1----------\  /-----2
 |  ,  |  ,  |  ,  |  ,  |  ,  |  ,  |  ,  |  ,  \/ |  ,  |  ,     
--0----------------------------------------------||-------------
----3--------0----------------------------------o||-------------
-----4----4------------0-----2-2-/4--------------||-------------
-2-----2-------------2-----4---------------------||-------------
-2-----2-----------3----/5-----------7----------o||-7-----(5-h7)
-------S--------------------------------7-(0)----||---(7)-------


3/8

 | , , | , , | , , | , , | , , | , , | , , | , , | , , | , , | , , | , ,  
-------------------------------------------------------------------------
-------------------------------------------------10----------10----------
-----------------0-----2-----4-----5-7-------7-----7-------7-----7-------
-----2-----4---2-----5-----5-----9---7---7-----7-----9---9---------9---9-
---2-----2---------------------7-------5---------------9-------------9---
-0-----2-----0-----2-----3-----5-----7-----7-----7-------------7---------
 ^^^^^^^^^^^
 rough. need 7th string?


 till the end of part put heavy accent on notes under | mark
 
 | , , | , , | , , | , , | , , | , , | , , | , , | , , | , , | , , | , ,
-----0-----------0-----------0-----------0---- 12>---0-----------0-------
---0-------0---0-----10p0--0-------0---0---- 12>---0-------0---0-----10p0
-9-------11--9-----11----9-------11--9---- 12>---9-------11--9-----11----
-------12----------------------12----------------------12----------------
-------------------------------------------------------------------------
-------------------------------------------------------------------------

 | , , | , , | , , | , , | , , | , , | , , | , , | , , 
-----0-----------0-----------0-------------------------
---0-------0---0-----------0-------0-----8-----7-----5-
-9-------11--9-----------9-------11----9-----7-----5---
-------12----------------------12----10----9-----7-----
-------------------------------------------------------
-------------------0-----------------------------------


 | , , | , , | , , | , ,
-------------------------||
-----3-----0-----0-----0-||
--0h4----2-----0-----0---||
-2----0h4----2-----2-----||
-------------------2-----||
-------------------0-----||


Part B, 2 times. Still 3/8

                           1----------------\  /--------------------2
   | , , | , , | , , | , , | , , | , , | , , \/ | , , | , , | , , | , ,
||-0-----------------------0-----------------||------------------------
||o--3---0---0-----0-----0---3--p0---0-3---3o||------------------------
||-----4--p0---0-----2---------4---4-----4---||------------------------
||-------2-------2-----4---------2-----4-----||-0---2-4p2-0-2----------
||o------------3-----5----------------------o||-----------------2------
||-0-----------------------0-----------------||-2-----------0-----0----


Part C

   | , , | , , | , , | , , | , , | , , | , , | , , | , , | , , | , , 
||-0-----------------------------------------------3p0---------2p0---
||o--0---------3p0---------0h1p0-------------------------0---------3-
||-----0-----------0-------------0-----0---0-----------4--p0---------
||-------5p2---------4---4-2-------2/4---5---------2---------2-0-----
||o------------2-------5---3-----------------------------------------
||-0-----------------------S-----------------0-----------------------

 | , , | , , | , , | , , | , ,
-------------------------------||
-----------0------------------o||
-4-----0h2---------0-----------||
---4p0-------4p2h4-----2-----2-||
-------3-------------------2--o||
-------0-----2-----0-----0-----||


Part D, 2 times
                           1----------------------\  /------------2
   | , , | , , | , , | , , | , , | , , | , , | , , \/ | , , | , , 
||-3p0---------5p2---------------------------------||--------------
||o----0-0--(0)3---3-3-----1p0---0----------------o||--------------
||-------0(2)--------2---0-----2-----0-----1-0-----||--------------
||-------2-----------------------2-----3-------2---||-0---2-4p2-0--
||o------S-----2-----5-----0-----------3---------2o||--------------
||-0-----------------------------3-----1-----0-----||-2------------


 | , , | , , 
-------------||
-------------||
-------------||
-2-----------||
-----2-------||
-0-----0-----||

Part E, 2 times
                            1----------------------\  /------------
    | , , | , , | , , | , , | , , | , , | , , | , , \/ | , , | , ,
||--7p5p3-0---------2-0-----------------------------||-------------
||o-------------3h5-----3---------0-----------0----o||---3-1-0-----
||------------4-----------4-2h4-5-----0-2p0h2---0---||-2-----------
||--------------------------------2---------------2-||-------------
||o-------------2-----------0----------------------o||-0-----------
||-(0)----------------0-----------3-----2-----------||-------3-----
                                                       ^^^^^
                                                       stocatto
 | , , | , ,
-------------||
-----3-/5----||
-2-----------||
-------------||
-------------||
-2------0----||


Part F

   | , , | , , | , , | , , | , , | , , | , , | , , | , , | , , | , ,
||-----0-----------0-----------0-----------0---- 12>---0-----------0-
||---0-------0---0-----10p0--0-------0---0---- 12>---0-------0---0---
||-9-------11--9-----11----9-------11--9---- 12>---9-------11--9-----
||-------12----------------------12----------------------12----------
||-------------------------------------------------------------------
||-------------------------------------------------------------------

slow down
 | , , | , , | , , | , , | , ,
-----0-----0-----0------ 12>---||
---10----12----10----- 12>-----||
-11----12----11----9-----------||
-------------------- 7>--------||
-------------------------------||
------------------------ 12>---||

Transcription and tab by Artiom Morozov  artiom@phreaker.net>
     
Добавлено: 29.11.2013
Другие материалы по этой песне:
  • Аккорды и текст

Страница создана 29.11.2013
http://primanota.ru/ritchie-blackmore/wind-dance-of-fairies-chords.htm
Привет, Гость.
Предлагаем пройти революционный курс по гитаре.
Подарок от PrimaNota.Ru, забирай!