PrimaNota.ru - самый крупный в мире бесплатный архив песенных текстов, аккордов, табулатур и нот


Rise To Remain - Nothing Left - текст песни, таба, видео

Регистрация Запомнить меня
Войти через:  Facebook Google Twitter Vk Yandex Mail.ru

Rise To Remain - Nothing Left - текст песни, таба, видео

Печатать
Просмотров: 176
--------------------------------------------------------------------------------
                     Nothing Left Solo - Rise To Remain        
--------------------------------------------------------------------------------
Tabbed by:????????METAL      (Bridges Will Burn)
Tuning: Drop D 

If you are going to use this tab for a cover that you are 
going to put on youtube for example. Please write in 
the discription of your video that you used this tab and 
that it was tabbed by:
                           ????????METAL.
        (thats 8 ?'s and then metal in capital letters)    

Here is the tab for the solo. And I can't play the solo, I just slowed it down
and tabbed it out. If you want the whole song tabbed out and you have Guitar- 
Pro. I will be uploading a G.P. tab shorty.
The G.P. tab has lead gtr track, lead backup gtr track, rhythm gtr and Drum 
track.

Please tell me what you thing of the tab. and Any corrections would be helpful.
Email yelowdiga@yahoo.co.nz

Key:

T = Tapping
h = hammer on
p = pull off
w = wammy bar
b = bend
(*) = natural harmonic
* = harmonic
# = tremelo pick
.5 = half step bend
/ = slide up
\ = slide down
hph = pick the phrase once
~ = vibrato
pm.. = palm mute
() = note barely heard, or bring bent note back to normal
x = dead note



Solo

You will porbably have to hammer on and pull off the whole intro riff. 
And the little box below this one is still part of the fast intro riff of solo.
                                               T
e|------------------------------------10-12-14-17-14-12-10----------------|
B|---------------------------10-12-14----------------------10-12-14-12-10-|
G|------7-9-11-9-7----7-9-11----------------------------------------------| 
D|-9-11------------11-----------------------------------------------------| 
A|------------------------------------------------------------------------|
D|------------------------------------------------------------------------|

e|--------------------|
B|--------------------|
G|-13-11--------------|
D|--------------------|
A|-------9-11-12-11-9-|
D|--------------------|
   
This bit was hard to show in tab(not harmonic bit or 11). Your meant to 
half bend release the note and then do a 1.5 note dip with the wammy bar,
come back up to normal and finish with vabrato.   

  .5  w          (*) (*) (*)    w (do a 1.5 note dive)
e|----------------7---------------------------------| 
B|--------------------7-----------------------------|
G|-7-(7)-7~~--------------7-------------------------|
D|----------------------------(11)------------------|
A|--------------------------------------------------|
D|--------------------------------------------------|

                                         b
e|--------------------------------------------------| 
B|-/12--9-10~---/12--9-10~---/12--9-10~--15~--------|
G|--------------------------------------------------|
D|--------------------------------------------------|
A|--------------------------------------------------|
D|--------------------------------------------------|


e|--------------------------------------------------| 
B|-10-10-10-10-10-10---9-9-9-10-12---9-9-9----------|
G|-9--9--9--9--9--9----9-9-9----9----9-9-9----------|
D|--------------------------------------------------|
A|--------------------------------------------------|
D|--------------------------------------------------|

This bit was the hardest to tab out because it's so random, might need changes. 


e|--------------------------------------------------------------------------| 
B|-14-15-17-15\12-14-15-14\10/12-14\9-10-12-10------------------------------|
G|---------------------------------------------6-7-9-7----------------------|
D|-----------------------------------------------------6-7-9-7-6--7--9--7~~~|
A|--------------------------------------------------------------------------|
D|--------------------------------------------------------------------------|


  pm.............................. .5   * (give the 6 a slight harmonic)
e|--------------------------------------------------| 
B|--------------------------------------------------|
G|--------------------------------------------------|
D|-9-7-6-------6-4-2-------7-6-4---6---(6)~~--------|
A|-------9-7-6-------6-4-2-------7------------------|
D|--------------------------------------------------|

There might be notes instead of x's

      h      h      h     h     h     h w (2 note dive with wammy bar) 
e|--------------------------------------------------|
B|--------------------------------------------------|
G|--------------------------------------------------|
D|-11-12-x-9-11-x-6-7-x-4-6-x-2-4-x-0-2-0-----------|
A|--------------------------------------------------|
D|--------------------------------------------------|

Now this is where the harmony Gtr (Gtr 2) comes in. 


Gtr 1
    p  p     p     p  p     p    p  p     p     p  p     p
e|-------------------------------------------------------------------| 
B|-15-14-12-------17-15-14-------19-17-15-------20-19-17-------22~~~-|
G|----------14-12----------16-14----------18-16----------19-18-------|
D|-------------------------------------------------------------------|
A|-------------------------------------------------------------------|
D|-------------------------------------------------------------------|

Gtr 2(Harmony)
    p  p     p     p  p     p    p  p     p     p  p     p
e|-------------------------------------------------------------------| 
B|-19-17-15-------20-19-17-------22-20-19-------24-22-20-------22~~~-|
G|----------18-16----------19-18----------21-19----------23-21-------|
D|-------------------------------------------------------------------|
A|-------------------------------------------------------------------|
D|-------------------------------------------------------------------|


Gtr 1

e|--------------------------------------------------| 
B|-/15-12-14-10-12\----/12-9-10---------------------|
G|------------------------------9~~~~---------------|
D|--------------------------------------------------|
A|--------------------------------------------------|
D|--------------------------------------------------|

Gtr 2(Harmony)

e|--------------------------------------------------| 
B|-/19-15-17-14-15\----/15-12-14--------------------|
G|-------------------------------13~~~~-------------|
D|--------------------------------------------------|
A|--------------------------------------------------|
D|--------------------------------------------------|

End of harmony. And the little box below this one still belongs to the 
fast riff. 


      p  p     p  p  h  p  p     p  p     p     p  p
e|-17-15-14----------------------------------------------| 
B|----------17-15-14-17-15-14----------15-14-------------|
G|----------------------------16-14-13-------16-14-13----|
D|----------------------------------------------------16-|
A|-------------------------------------------------------|
D|-------------------------------------------------------|

          p   p    p
e|-------------------------|
B|-14----------------------|
G|----16-14-13-------14~~~-|
D|-------------16-14-------|
A|-------------------------|
D|-------------------------|

The little Box below this one this belongs to end
riff. And the tapping has to be done really fast.



e|----------------------------------------------| 
B|----------10-12-14-12-10----------------------|
G|-------------------------13-11----------------|
D|----12-14----------------------14-12----12-14-|
A|-11----------------------------------11-------|
D|----------------------------------------------|

      h   T   T   h        w (5 note dive with wammy bar)
e|-12-14-17141714-12------------| 
B|-------------------14---------|
G|----------------------14------|
D|-------------------------0----|
A|------------------------------|
D|------------------------------|

Good Luck!

===================================================================================
Добавлено: 04.03.2012
Другие материалы по этой песне:

Страница создана 04.03.2012
http://primanota.ru/rise-to-remain/nothing-left-chords.htm
Привет, Гость.
Предлагаем пройти революционный курс по гитаре.
Подарок от PrimaNota.Ru, забирай!