PrimaNota.ru - самый крупный в мире бесплатный архив песенных текстов, аккордов, табулатур и нот


Rise From The Ashes - Final Goodbye - текст песни, таба, видео

Регистрация Запомнить меня
Войти через:  Facebook Google Twitter Vk Yandex Mail.ru

Rise From The Ashes - Final Goodbye - текст песни, таба, видео

Печатать
Просмотров: 92
Artist: From Ashes Rise
Song: The Final Goodbye
Album: Nightmares

Tabbed by: The Speed (straightfaced10@hotmail.com)

This tab is almost fully correct to my knowledge, except for a few parts.
Make sure to play this, you're in drop Db tuning.

Intro, part 1

Guitar 1
eb|-------------------------------------------------------------------|
Bb|-------------------------------------------------------------------|
Gb|-2---------------0---3---2---0---2---------------------------------|
Db|---0-0-0-0-0-0-0---0---0---0---0---0-0-0-0-0-0-0-0-0-0-0-0-0-0-0-0-| Play alone once, 
Guitar 2 comes in
Ab|-------------------------------------------------------------------|
Db|-------------------------------------------------------------------|

Guitar 2
eb|-------------------------------------------------------------------|
Bb|-------------------------------------------------------------------|
Gb|---------------------------0---------------------------------------|
Db|---0~---------------0-------------0~-------------------------------|
Ab|----------------0-------0-----0------------------------------------|
Db|-0-----------------------------------------------------------------|
Play these together a few times, and Guitar 2 ends with a pickslide into...


Intro, part 2 (play twice)

Guitar 1 (distortion)
eb|-------------------------------------------------------------------|
Bb|-------------------------------------------------------------------|
Gb|-2---------------0---3---2---0---2-----------------0---3---2---0---|
Db|---0-0-0-0-0-0-0---0---0---0---0---0-0-0-0-0-0-0-0---0---0---0---0-|
Ab|-------------------------------------------------------------------|
Db|-------------------------------------------------------------------|

Guitar 2
eb|-------------------------------------------------------------------|
Bb|-------------------------------------------------------------------|
Gb|-------------------------------------------------------------------|
Db|-0~--------------------------0-7-8~----------------5~--------------|
Ab|-0~--------------------------0-7-8~----------------5~--------------|
Db|-0~--------------------------0-7-8~----------------5~--------------|

Guitar 1 (distortion)
eb|-------------------------------------------------------------------|
Bb|-------------------------------------------------------------------|
Gb|-2---------------0---3---2---0---2-----------------0---3---2---0---|
Db|---0-0-0-0-0-0-0---0---0---0---0---0-0-0-0-0-0-0-0---0---0---0---0-|
Ab|-------------------------------------------------------------------|
Db|-------------------------------------------------------------------|

Guitar 2 (distortion)
eb|-------------------------------------------------------------------|
Bb|-------------------------------------------------------------------|
Gb|---------------------------------------------------5~--------------|
Db|-0~--------------------------0-2-3~----------------5~--------------|
Ab|-0~--------------------------0-2-3~----------------3~--------------|
Db|-0~--------------------------0-2-3~--------------------------------|


Pre-verse

Both Guitars
eb|---------------------------------------------|
Bb|---------------------------------------------|
Gb|-7---7-7---7-7---7-7--10-9-7---7-7---5---3-5-| Play three times.
Db|-7---7-7---7-7---7-7--10-9-7---7-7---5---3-5-|
Ab|-5---5-5---5-5---5-5---8-7-5---5-5---3---1-3-|
Db|---------------------------------------------|

eb|----------------------------------------------|
Bb|----------------------------------------------|
Gb|-7---7-7---7-7---7-7--10-9-7---7-7---5-5--3-5-|
Db|-7---7-7---7-7---7-7--10-9-7---7-7---5-5--3-5-|
Ab|-5---5-5---5-5---5-5---8-7-5---5-5---3-3--1-3-|
Db|----------------------------------------------|


Verse ("The claim of the priests...")
eb|---------------------------------------------------------|
Bb|---------------------------------------------------------|
Gb|-10-7--7-7-7--7-7-7--7-8-7-5-----------------------------|
Db|-10-7--7-7-7--7-7-7--7-8-7-5-5-5--5-5-5--5-8-8--8-8-10-8-|
Ab|--8-5--5-5-5--5-5-5--5-6-5-3-5-5--5-5-5--5-8-8--8-8-10-8-|
Db|-----------------------------5-5--5-5-5--5-8-8--8-8-10-8-|

eb|---------------------------------------------------------|
Bb|---------------------------------------------------------|
Gb|-10-7--7-7-7--7-7-7--7-8-7-5-----------------------------|
Db|-10-7--7-7-7--7-7-7--7-8-7-5-8-8--8-8-10-8-7-7--7-8-10-8-|
Ab|--8-5--5-5-5--5-5-5--5-6-5-3-8-8--8-8-10-8-7-7--7-8-10-8-|
Db|-----------------------------8-8--8-8-10-8-7-7--7-8-10-8-|

eb|---------------------------------------------------------|
Bb|---------------------------------------------------------|
Gb|-10-7--7-7-7--7-7-7--7-8-7-5-----------------------------|
Db|-10-7--7-7-7--7-7-7--7-8-7-5-5-5--5-5-5--5-8-8--8-8-8--8-|
Ab|--8-5--5-5-5--5-5-5--5-6-5-3-5-5--5-5-5--5-8-8--8-8-8--8-|
Db|-----------------------------5-5--5-5-5--5-8-8--8-8-8--8-|

("Waiting for the final goodbye...")
eb|---------------------------------------------------------|
Bb|---------------------------------------------------------|
Gb|---------------------------------------------------------|
Db|-3-3--3-3-3--3-3-3--3-3-3--3-5-5--5-5-5--5-5-5--5-8-10-8-|
Ab|-3-3--3-3-3--3-3-3--3-3-3--3-5-5--5-5-5--5-5-5--5-8-10-8-|
Db|-3-3--3-3-3--3-3-3--3-3-3--3-5-5--5-5-5--5-5-5--5-8-10-8-|

Verse (cont... "The claim of the wicked...")
eb|---------------------------------------------------------|
Bb|---------------------------------------------------------|
Gb|-10-7--7-7-7--7-7-7--7-8-7-5-----------------------------|
Db|-10-7--7-7-7--7-7-7--7-8-7-5-5-5--5-5-5--5-8-8--8-8-10-8-|
Ab|--8-5--5-5-5--5-5-5--5-6-5-3-5-5--5-5-5--5-8-8--8-8-10-8-|
Db|-----------------------------5-5--5-5-5--5-8-8--8-8-10-8-|

eb|---------------------------------------------------------|
Bb|---------------------------------------------------------|
Gb|-10-7--7-7-7--7-7-7--7-8-7-5-----------------------------|
Db|-10-7--7-7-7--7-7-7--7-8-7-5-8-8--8-8-10-8-7-7--7-8-10-8-|
Ab|--8-5--5-5-5--5-5-5--5-6-5-3-8-8--8-8-10-8-7-7--7-8-10-8-|
Db|-----------------------------8-8--8-8-10-8-7-7--7-8-10-8-|

eb|---------------------------------------------------------|
Bb|---------------------------------------------------------|
Gb|-10-7--7-7-7--7-7-7--7-8-7-5-----------------------------|
Db|-10-7--7-7-7--7-7-7--7-8-7-5-5-5--5-5-5--5-8-8--8-8-8--8-|
Ab|--8-5--5-5-5--5-5-5--5-6-5-3-5-5--5-5-5--5-8-8--8-8-8--8-|
Db|-----------------------------5-5--5-5-5--5-8-8--8-8-8--8-|

("Waiting for the final goodbye...")
eb|---------------------------------------------------------|
Bb|---------------------------------------------------------|
Gb|---------------------------------------------------------|
Db|-3-3--3-3-3--3-3-3--3-3-3--3-5-5--5-5-5--5-5-5--5-5-5--5-|
Ab|-3-3--3-3-3--3-3-3--3-3-3--3-5-5--5-5-5--5-5-5--5-5-5--5-|
Db|-3-3--3-3-3--3-3-3--3-3-3--3-5-5--5-5-5--5-5-5--5-5-5--5-|


Interlude
eb|---------------------------------------------------------|
Bb|---------------------------------------------------------|
Gb|-------------------------(7)-----------------------------|
Db|-0~----------------------(7)----------------------8-10-8-|
Ab|-0~-----------------------------------------------8-10-8-|
Db|-0~-----------------------------------------------8-10-8-|


Verse ("The claim of the realist...")
eb|---------------------------------------------------------|
Bb|---------------------------------------------------------|
Gb|-10-7--7-7-7--7-7-7--7-8-7-5-----------------------------|
Db|-10-7--7-7-7--7-7-7--7-8-7-5-5-5--5-5-5--5-8-8--8-8-10-8-|
Ab|--8-5--5-5-5--5-5-5--5-6-5-3-5-5--5-5-5--5-8-8--8-8-10-8-|
Db|-----------------------------5-5--5-5-5--5-8-8--8-8-10-8-|

eb|---------------------------------------------------------|
Bb|---------------------------------------------------------|
Gb|-10-7--7-7-7--7-7-7--7-8-7-5-----------------------------|
Db|-10-7--7-7-7--7-7-7--7-8-7-5-8-8--8-8-10-8-7-7--7-8-10-8-|
Ab|--8-5--5-5-5--5-5-5--5-6-5-3-8-8--8-8-10-8-7-7--7-8-10-8-|
Db|-----------------------------8-8--8-8-10-8-7-7--7-8-10-8-|

eb|---------------------------------------------------------|
Bb|---------------------------------------------------------|
Gb|-10-7--7-7-7--7-7-7--7-8-7-5-----------------------------|
Db|-10-7--7-7-7--7-7-7--7-8-7-5-5-5--5-5-5--5-8-8--8-8-8--8-|
Ab|--8-5--5-5-5--5-5-5--5-6-5-3-5-5--5-5-5--5-8-8--8-8-8--8-|
Db|-----------------------------5-5--5-5-5--5-8-8--8-8-8--8-|

("Waiting for the final goodbye...")
eb|---------------------------------------------------------|
Bb|---------------------------------------------------------|
Gb|---------------------------------------------------------|
Db|-3-3--3-3-3--3-3-3--3-3-3--3-5-5--5-5-5--5-5-5--5-5-5--5-|
Ab|-3-3--3-3-3--3-3-3--3-3-3--3-5-5--5-5-5--5-5-5--5-5-5--5-|
Db|-3-3--3-3-3--3-3-3--3-3-3--3-5-5--5-5-5--5-5-5--5-5-5--5-|


Outro

Part 1 (play four times)
Guitar 1 (distortion)
eb|-------------------------------------------------------------------|
Bb|-------------------------------------------------------------------|
Gb|-2-2-2-2-2-2-2-2-0-0-3-3-2-2-0-0-2-2-2-2-2-2-2-2-2-0-0-3-3-2-2-0-0-|
Db|-0-0-0-0-0-0-0-0-0-0-0-0-0-0-0-0-0-0-0-0-0-0-0-0-0-0-0-0-0-0-0-0-0-|
Ab|-------------------------------------------------------------------|
Db|-------------------------------------------------------------------|

Guitar 2 (distorted, palm muted)
eb|-------------------------------------------------------------------|
Bb|-------------------------------------------------------------------|
Gb|-------------------------------------------------------------------|
Db|-0-0-0-0-0-0-0-0-0-0-0-0-0-0-0-0-0-0-0-0-0-0-0-0-0-0-0-0-0-0-0-0-0-|
Ab|-0-0-0-0-0-0-0-0-0-0-0-0-0-0-0-0-0-0-0-0-0-0-0-0-0-0-0-0-0-0-0-0-0-|
Db|-0-0-0-0-0-0-0-0-0-0-0-0-0-0-0-0-0-0-0-0-0-0-0-0-0-0-0-0-0-0-0-0-0-|

Part 2 (play twice)
Both Guitars
eb|-------------------------------------------------------------------|
Bb|-------------------------------------------------------------------|
Gb|-7~----------------------------------------------------------------|
Db|-7~--------------------------0-7-8~----------------5~--------------|
Ab|-5~--------------------------0-7-8~----------------5~--------------|
Db|-0~--------------------------0-7-8~----------------5~--------------|

eb|-------------------------------------------------------------------|
Bb|-------------------------------------------------------------------|
Gb|---------------------------------------------------5~--------------|
Db|-0~--------------------------0-2-3~----------------5~--------------|
Ab|-0~--------------------------0-2-3~----------------3~--------------|
Db|-0~--------------------------0-2-3~--------------------------------|

Part 3
eb|---|
Bb|---|
Gb|-7-| This chord is timed with the snare rolls... you get the idea, I'm lazy.
Db|-7-|
Ab|-5-|
Db|---|

eb|------------------------------------------------------------------|
Bb|------------------------------------------------------------------|
Gb|-7-----------7------3------5--------------------------------------| This is the chord 
for the end.
Db|-7-----3-----7------3------5--------------------------------------| You can figure 
the rhythm yourself.
Ab|-5-----3-----5------1------3--------------------------------------|
Db|-------3----------------------------------------------------------|

End on:

Db|-0--|
Ab|-0--|
Db|-0--|


And that's about it. There's a third guitar underneath the last progression in the Outro,
but I haven't been able to figure that out. Maybe you can. Enjoy! Hopefully this has 
a help.
Добавлено: 07.06.2012
Другие материалы по этой песне:
  • Аккорды и текст

Страница создана 20.03.2012
http://primanota.ru/rise-from-the-ashes/final-goodbye-chords.htm
Привет, Гость.
Предлагаем пройти революционный курс по гитаре.
Подарок от PrimaNota.Ru, забирай!