PrimaNota.ru - самый крупный в мире бесплатный архив песенных текстов, аккордов, табулатур и нот


Rise Against - We Give It All - бас-таба, видео

Регистрация Запомнить меня
Войти через:  Facebook Google Twitter Vk Yandex Mail.ru

Rise Against - We Give It All - бас-таба, видео

Печатать
Просмотров: 201
Name: Give it all
Artist: Rise against
Album: Siren Song of the Counter Culture

Tuning: EADG (from the bottom string up)

This is the most accurate (if not completely acurrate) tab for this song.

Wait for guitar part to end

	Verse1 2x
G|--------------------------------------|
D|--------------------------------------|
A|--------------5555----------5555-7777-|
E|-22--22--22--------22—-22-------------|

	Verse2 2x
G|--------------------------------------|
D|--------------------------------------|
A|--------------5555----------5555-7777-|
E|-220022002200------22002200-----------|

	Chorus1 1x
G|-------------------------------------------------------------------|
D|------------------------66677799--------77766677-------------------|
A|000000004445556677777777--------99999999--------555555557775553377-|
E|-------------------------------------------------------------------|

	Chorus2 1x
G|-----------------------------------------------------------------|
D|------------------------66677799--------77766677-----------------|
A|000000004445556677777777--------99999999--------5555555555555555-|
E|-----------------------------------------------------------------|

	Wait for guitar part to end

	Verse1 2x
G|--------------------------------------|
D|--------------------------------------|
A|--------------5555----------5555-7777-|
E|-22--22--22--------22--22-------------|

	Verse2 2x
G|--------------------------------------|
D|--------------------------------------|
A|--------------5555----------5555-7777-|
E|-220022002200------22002200-----------|

	Chorus1 1x
G|-------------------------------------------------------------------|
D|------------------------66677799--------77766677-------------------|
A|000000004445556677777777--------99999999--------555555557775553377-|
E|-------------------------------------------------------------------|

	Chorus3 1x 
G|--------------------------------------------------------------|
D|------------------------66677799--------77766677--------------|
A|000000004445556677777777--------99999999--------55555555------|
E|--------------------------------------------------------4--5--|

	Bridge1 1x
G|-------------------------------------------------------|
D|-------------------------------------------------------|
A|-----------------5-5-5-55-55-5-5-----------------------|
E|-2-2-2-22-22-2-2-----------------0-0-0-00-00-0-0-4~~5~~|
	Bridge2 1x
G|-----------------------------------------------------------------|
D|-----------------------------------------------------------------|
A|-----------------5-5-5-55-55-5-5---------------------------------|
E|-2-2-2-22-22-2-2-----------------0-0-0-00-00-0-0-5-5-5-5-4-4-4-4-|

	Bridge3 1x
G|----------------------------------------------------------------|
D|----------------------------------------------------------------|
A|-----------------5-5-5-5-5-5-5-5--------------------------------|
E|-2-2-2-2-2-2-2-2-----------------0-0-0-0-0-0-0-0-5-5-5-5-4-4-4-4|

	Bridge4 1x
G|-----------------------------------------------------|
D|-----------------------------------------------------|
A|-----------------5-5-5-5-5-5-5-5-7-7-7-7-7-7-7-7-7---|
E|-2-2-2-2-2-2-2-2-------------------------------------|

Chorus1 1x
G|-------------------------------------------------------------------|
D|------------------------66677799--------77766677-------------------|
A|000000004445556677777777--------99999999--------555555557775553377-|
E|-------------------------------------------------------------------|

Chorus2 1x
G|-----------------------------------------------------------------|
D|------------------------66677799--------77766677-----------------|
A|000000004445556677777777--------99999999--------5555555555555555-|
E|-----------------------------------------------------------------|

	Outro 2x
G|-----------------------------------------------------------------------|
D|-----------------------------------------------------------------------|
A|00000000000000007777777777777777999999999999999955555555555555577554477|
E|-----------------------------------------------------------------------|

END!
G|------|
D|------|
A|0-----|
E|------|
Добавлено: 04.05.2012
Другие материалы по этой песне:
  • Аккорды и текст

Страница создана 04.05.2012
http://primanota.ru/rise-against/we-give-it-all-chords.htm
Привет, Гость.
Предлагаем пройти революционный курс по гитаре.
Подарок от PrimaNota.Ru, забирай!