PrimaNota.ru - самый крупный в мире бесплатный архив песенных текстов, аккордов, табулатур и нот


Rise Against - Voice Of Dissent - таба, видео

Регистрация Запомнить меня
Войти через:  Facebook Google Twitter Vk Yandex Mail.ru

Rise Against - Voice Of Dissent - таба, видео

Печатать
Просмотров: 121
-------------------------------------------------------------------------------
                             Voice of Dissent - Rise Against
-------------------------------------------------------------------------------
Tabbed by: andrewheher
E-mail: andrewheher@gmail.com

Tuning: Half Step Down; D# G# C# F# A# D# 


This song is one of my favorites! Be sure to strum really quick when needed! *Listen to the song for the
right timing! ENJOY! :-)



Intro: 

e|-------------------------------------------------------------------------------------|
B|-------------------------------------------------------------------------------------|
G|------------5555555555555555---------555555\777777/555555\777777---pickslide---------|
D|---3+-------5555555555555555---------555555\777777/555555\777777----/////------------|
A|---3+-------3333333333333333---------333333\555555/333333\555555----/////------------|
E|---1+--------------------------------------------------------------/////-------------|

Verse:

e|-------------------------------------------------------------------------------------------------|
B|-------------------------------------------------------------------------------------------------|
G|--555555/777777------555555-555555/777777-777777---555555/777777/101010-101010\555555------------|
D|--555555/777777--x3--555555-555555/777777-777777---555555/777777/101010-101010\555555-555555--3--|
A|--333333/555555------333333-333333/555555-555555---333333/555555/888888-888888\333333-555555--3--|
E|--------------------------------------------------------------------------------------333333--1--|
                              .............          .............
Chorus: 

e|-------------------------------------------------------------------------------------------------|
B|-------------------------------------------------------------------------------------------------|
G|--5555-----------------888888----------55555555555555----555555\777777/555555\777777---pickslide-|
D|--5555--5555/66666666--888888--888888--55555555555555----555555\777777/555555\777777----/////----|
A|--3333--5555/66666666--666666--888888--33333333333333----333333\555555/333333\555555----/////----|
E|--------3333/44444444----------666666---------------------------------------------------/////----|

REPEAT VERSE

REPEAT CHORUS 


Right before the bridge:

e|----------------------------------|
B|----------------------------------|
G|----------------------------------|
D|-3-3333333333333333333333333------|
A|-3-3333333333333333333333333------|
E|-1-1111111111111111111111111------|
     ............


Bridge: 

e|--------------------------------------------------------|
B|--------------------------------------------------------|
G|--5/3\6--6/5\6-6\8\10-----------------------------------|
D|--5/3\6--6/5\6-6\8\10--333333333333333333---------------|
A|--3/1\4--4/3\4-4\6\8---333333333333333333--x3-----------|
E|-----------------------111111111111111111---------------|
                         .........
e|------------------------------------------------------------------------------------------|
B|------------------------------------------------------------------------------------------|
G|--5/3\6--6/5\6-6\8\10/8/6/5\6/5-5/3\6-6/5\6\8------pickslide-10101010/5555555-------------|
D|--5/3\6--6/5\6-6\8\10/8/6/5\6/5-5/3\6-6/5\6\8--3+--/////-----10101010/5555555-555555---3--|
A|--3/1\4--4/3\4-4\6\8-/6/4/3\4/3-3/1\4-4/3\4\6--3+--/////------8888888/3333333-555555---3--|
E|-----------------------------------------------1+--/////----------------------333333---1--|

Ending:

e|---------------------------------------------------------|
B|---------------------------------------------------------|
G|--5555-----------------888888----------55555555555555----|
D|--5555--5555/66666666--888888--888888--55555555555555----|
A|--3333--5555/66666666--666666--888888--33333333333333----|
E|--------3333/44444444----------666666--------------------|

e|----------------------------------------------|
B|----------------------------------------------|
G|--3--------5--------55555555555--3--------5---|
D|--3--3--5--5--5--6--55555555555--3--3--5--5---|
A|--1--3--5--3--5--6--33333333333--1--3--5--3---|
E|-----1--3-----3--4------------------1--3------|


************************************

| \   slide up
| /   slide down
| .   palm-mute 

************************************
Добавлено: 13.02.2016
Вам также может быть интересно:
Другие материалы по этой песне:
  • Аккорды и текст

Страница создана 13.02.2016
http://primanota.ru/rise-against/voice-of-dissent-chords.htm
Привет, Гость.
Предлагаем пройти революционный курс по гитаре.
Подарок от PrimaNota.Ru, забирай!