PrimaNota.ru - самый крупный в мире бесплатный архив песенных текстов, аккордов, табулатур и нот


Rise Against - Survivor Guilt - текст песни, таба, бас-таба, видео

Регистрация Запомнить меня
Войти через:  Facebook Google Twitter Vk Yandex Mail.ru

Rise Against - Survivor Guilt - текст песни, таба, бас-таба, видео

Печатать
Просмотров: 370
Уроки эстрадного вокала в Санкт-Петербурге
Tabbed by: Joshua Garcia (halofreak731@aol.com)

Tabs for the song: Survivor Guilt by Rise Against
Please rate and let me know if you have any corrections. Thank you.


Tuning: Half Step Down (D# G# C# F# A# D#)


Intro
Guitar 1:
D#||-----------5--------------------1--------------------1----------0-----------0--------|
A#||--------3------3-------------3------3-------------3------3----------3----------3-----|
F#||-----2------------2-------2------------2-------2------------2----------2----------2--|
C#||--0----------------------------------------------------------------------------------|
G#||-----------------------1--------------------3----------------------------------------|
D#||-------------------------------------------------------------------------------------|


D#||-----------5--------------------1-------------------------------------------------8--|
A#||--------3------3-------------3------3--------3------3------3------3-----3--3/5h6-----|
F#||-----2------------2-------2------------2-----0------0------0---------0---------------|
C#||--0------------------------------------------0---------------------------------------|
G#||-----------------------1-------------------------------------------------------------|
D#||-------------------------------------------------------------------------------------|


D#||-----------5--------------------1--------------------1----------0-----------0--------|
A#||--------3------3-------------3------3-------------3------3----------3----------3-----|
F#||-----2------------2-------2------------2-------2------------2----------2----------2--|
C#||--0----------------------------------------------------------------------------------|
G#||-----------------------1--------------------3----------------------------------------|
D#||-------------------------------------------------------------------------------------|


D#||-----------5--------------------1----------------------------------------------------|
A#||--------3------3-------------3------3--------3-------3--------------6-6-6-6-5-5-5-5--|
F#||-----2------------2-------2------------2-----0-------0-------------------------------|
C#||--0------------------------------------------0---------------------------------------|
G#||-----------------------1-------------------------------------------------------------|
D#||-------------------------------------------------------------------------------------|


D#||-----------------------------------------------------------------|
A#||-------------------------------------------------11-11-11-11-11--|
F#||-------------------------------------------------x--x--x--x--x---|
C#||-0-0-0-0-0-0-0-0-8-8-8-8-8-8-8-8-0-0-0-0-0-0-0-0-8--8--8--8--8---|
G#||-----------------------------------------------------------------|
D#||-----------------------------------------------------------------|
     . . . . . . . . . . . . . . . . . . . . . . . .


Verse
Guitar 1/2:
D#||---------------------------------------------------|
A#||--10-10-10-10-10-10-10-10-11-11-11-11-11-11-11-11--|
F#||--x--x--x--x--x--x--x--x--x--x--x--x--x--x--x--x---|
C#||--7--7--7--7--7--7--7--7--8--8--8--8--8--8--8--8---| x4
G#||---------------------------------------------------|
D#||---------------------------------------------------|


D#||------------------------------|
A#||------------------------------|
F#||------------------------------|
C#||---5~-------------pick--------|
G#||---5~-----------------slide---|
D#||---3~-------------------------|


D#||---------------------------------------------------|
A#||--10-10-10-10-10-10-10-10-11-11-11-11-11-11-11-11--|
F#||--x--x--x--x--x--x--x--x--x--x--x--x--x--x--x--x---|
C#||--7--7--7--7--7--7--7--7--8--8--8--8--8--8--8--8---| x2
G#||---------------------------------------------------|
D#||---------------------------------------------------|


D#||------------------------------|
A#||------------------------------|
F#||------------------------------|
C#||---5~-------5-5-5-5-5-5-5-5---|
G#||---5~-------5-5-5-5-5-5-5-5---|
D#||---3~-------3-3-3-3-3-3-3-3---|
                . . . . . . . .

D#||---------------------------------------------------|
A#||--10-10-10-10-10-10-10-10-11-11-11-11-11-11-11-11--|
F#||--x--x--x--x--x--x--x--x--x--x--x--x--x--x--x--x---|
C#||--7--7--7--7--7--7--7--7--8--8--8--8--8--8--8--8---| x2
G#||---------------------------------------------------|
D#||---------------------------------------------------|



Pre-Chorus
Guitar 1:
D#||--------------------------------------------------------------------------------------------|
A#||--------------------------------------------------------------------------------------------|
F#||-10-10-10-10-10-10-10-10-10-10-10-10-10--7-7-7--10-10-10-10-10-10-10--12--5-5-5-5-5-5-5--7--|
C#||-x--x--x--x--x--x--x--x--x--x--x--x--x---x-x-x--x--x--x--x--x--x--x---x---x-x-x-x-x-x-x--x--|
G#||-8--8--8--8--8--8--8--8--8--8--8--8--8---5-5-5--8--8--8--8--8--8--8---10--3-3-3-3-3-3-3--5--|
D#||--------------------------------------------------------------------------------------------|


Guitar 2:
D#||--------------------------------------|
A#||--------------------------------------|
F#||-------------------33333333-55555555--|
C#||--5555555555555555-33333333-55555555--|
G#||--5555555555555555-11111111-33333333--|
D#||--3333333333333333--------------------|



Chorus
Guitar 1:
D#||----------------------------------------------------|
A#||--10-10-10-10-10-10-10-8-10-10-10-10-10-10-10-10-8--|
F#||--10-10-10-10-10-10-10-9-10-10-10-10-10-10-10-10-9--|
C#||----------------------------------------------------|
G#||----------------------------------------------------|
D#||----------------------------------------------------|


D#||----------------------------------------------------|
A#||--10-10-10-10-10-10-10-11-10-10-10-10-10-10-10-10---|
F#||--10-10-10-10-10-10-10-12-10-10-10-10-10-10-10-10---|
C#||----------------------------------------------------|
G#||----------------------------------------------------|
D#||----------------------------------------------------|


D#||----------------------------------------------------|
A#||--10-10-10-10-10-10-10-10-11-11-11-11-11-11-11-11---|
F#||--10-10-10-10-10-10-10-10-12-12-12-12-12-12-12-12---|
C#||----------------------------------------------------|
G#||----------------------------------------------------|
D#||----------------------------------------------------|


D#||---------------------------------------|
A#||--8-8-8-8-8-8-8-8-8-8-8----------------|
F#||--9-9-9-9-9-9-9-9-9-9-9---10-9~----5---|
C#||------------------------0-x--x~----x---|
G#||--------------------------8--7~----3---|
D#||---------------------------------------|


D#||----------------------------------------------------------------------------------|
A#||----------------------------------------------------------------------------------|
F#||--7-7-7-7-7-7-7-7-10-10-10-10-10-10-10-9-10-10-10-10-10-10-10-12---10---9------7--|
C#||--x-x-x-x-x-x-x-x-x--x--x--x--x--x--x--x-x--x--x--x--x--x--x--x----x----x------x--|
G#||--5-5-5-5-5-5-5-5-8--8--8--8--8--8--8--7-8--8--8--8--8--8--8--10---8----7------5--|
D#||----------------------------------------------------------------------------------|


D#||-----------------------------------------|
A#||-----------------------------------------|
F#||--10--7----------7---5---10--12------9---|
C#||--x---x----------x---x---x---x-------x---|
G#||--8---5----------5---3---8---10------7---|
D#||-----------------------------------------|


Guitar 2:
D#||---------------------------------------|---------------------------------------------|
A#||---------------------------------------|---------------------------------------------|
F#||--77777777-33333333-55555555-----------|--77777777-33333333-555555555555----------5--|
C#||--77777777-33333333-55555555-55555555--|--77777777-33333333-555555555555--3-2~----5--|
G#||--55555555-11111111-33333333-55555555--|--55555555-11111111-333333333333--3-2~----3--|
D#||-----------------------------33333333--|----------------------------------1-0~-------|


D#||---------------------------------------|----------------------------------------|
A#||---------------------------------------|----------------------------------------|
F#||--77777777-33333333-55555555-----------|--3333333333333333-5555555555555555--7--|
C#||--77777777-33333333-55555555-55555555--|--3333333333333333-5555555555555555--7--|
G#||--55555555-11111111-33333333-55555555--|--1111111111111111-3333333333333333--5--|
D#||-----------------------------33333333--|----------------------------------------|



Pre-Verse
Guitar 1:
D#||-----------------------------------------------------------------|
A#||-------------------------------------------------11-11-11-11-11--|
F#||-------------------------------------------------x--x--x--x--x---|
C#||-0-0-0-0-0-0-0-0-8-8-8-8-8-8-8-8-0-0-0-0-0-0-0-0-8--8--8--8--8---|
G#||-----------------------------------------------------------------|
D#||-----------------------------------------------------------------|
     . . . . . . . . . . . . . . . . . . . . . . . .


Verse
Guitar 1/2:
D#||---------------------------------------------------|
A#||--10-10-10-10-10-10-10-10-11-11-11-11-11-11-11-11--|
F#||--x--x--x--x--x--x--x--x--x--x--x--x--x--x--x--x---|
C#||--7--7--7--7--7--7--7--7--8--8--8--8--8--8--8--8---| x2
G#||---------------------------------------------------|
D#||---------------------------------------------------|


Guitar 1:
D#||---------------------------|
A#||---------------------------|
F#||--7--10--9--10--7--10--9~--|
C#||---------------------------|
G#||---------------------------|
D#||---------------------------|


Guitar 2:
D#||---------------------------------------------------|
A#||--10-10-10-10-10-10-10-10-11-11-11-11-11-11-11-11--|
F#||--x--x--x--x--x--x--x--x--x--x--x--x--x--x--x--x---|
C#||--7--7--7--7--7--7--7--7--8--8--8--8--8--8--8--8---| x2
G#||---------------------------------------------------|
D#||---------------------------------------------------|



Guitar 1:
D#||--------------------------|
A#||-----10--8------8---------|
F#||--7---------10-----10--9--|
C#||--------------------------|
G#||--------------------------|
D#||--------------------------|


Guitar 2:
D#||------------------------------|
A#||------------------------------|
F#||------------------------------|
C#||---5~-------------pick--------|
G#||---5~-----------------slide---|
D#||---3~-------------------------|


Guitar 1/2:
D#||---------------------------------------------------|
A#||--10-10-10-10-10-10-10-10-11-11-11-11-11-11-11-11--|
F#||--x--x--x--x--x--x--x--x--x--x--x--x--x--x--x--x---|
C#||--7--7--7--7--7--7--7--7--8--8--8--8--8--8--8--8---| x2
G#||---------------------------------------------------|
D#||---------------------------------------------------|


D#||------------------------------|
A#||------------------------------|
F#||------------------------------|
C#||---5~-------5-5-5-5-5-5-5-5---|
G#||---5~-------5-5-5-5-5-5-5-5---|
D#||---3~-------3-3-3-3-3-3-3-3---|
                . . . . . . . .

D#||---------------------------------------------------|
A#||--10-10-10-10-10-10-10-10-11-11-11-11-11-11-11-11--|
F#||--x--x--x--x--x--x--x--x--x--x--x--x--x--x--x--x---|
C#||--7--7--7--7--7--7--7--7--8--8--8--8--8--8--8--8---| x2
G#||---------------------------------------------------|
D#||---------------------------------------------------|



Pre-Chorus
Guitar 1:
D#||--------------------------------------------------------------------------------------------|
A#||--------------------------------------------------------------------------------------------|
F#||-10-10-10-10-10-10-10-10-10-10-10-10-10--7-7-7--10-10-10-10-10-10-10--12--5-5-5-5-5-5-5--7--|
C#||-x--x--x--x--x--x--x--x--x--x--x--x--x---x-x-x--x--x--x--x--x--x--x---x---x-x-x-x-x-x-x--x--|
G#||-8--8--8--8--8--8--8--8--8--8--8--8--8---5-5-5--8--8--8--8--8--8--8---10--3-3-3-3-3-3-3--5--|
D#||--------------------------------------------------------------------------------------------|


Guitar 2:
D#||--------------------------------------|
A#||--------------------------------------|
F#||-------------------33333333-55555555--|
C#||--5555555555555555-33333333-55555555--|
G#||--5555555555555555-11111111-33333333--|
D#||--3333333333333333--------------------|



Chorus
Guitar 1:
D#||----------------------------------------------------|
A#||--10-10-10-10-10-10-10-8-10-10-10-10-10-10-10-10-8--|
F#||--10-10-10-10-10-10-10-9-10-10-10-10-10-10-10-10-9--|
C#||----------------------------------------------------|
G#||----------------------------------------------------|
D#||----------------------------------------------------|


D#||----------------------------------------------------|
A#||--10-10-10-10-10-10-10-11-10-10-10-10-10-10-10-10---|
F#||--10-10-10-10-10-10-10-12-10-10-10-10-10-10-10-10---|
C#||----------------------------------------------------|
G#||----------------------------------------------------|
D#||----------------------------------------------------|


D#||----------------------------------------------------|
A#||--10-10-10-10-10-10-10-10-11-11-11-11-11-11-11-11---|
F#||--10-10-10-10-10-10-10-10-12-12-12-12-12-12-12-12---|
C#||----------------------------------------------------|
G#||----------------------------------------------------|
D#||----------------------------------------------------|


D#||---------------------------------------|
A#||--8-8-8-8-8-8-8-8-8-8-8----------------|
F#||--9-9-9-9-9-9-9-9-9-9-9---10-9~----5---|
C#||------------------------0-x--x~----x---|
G#||--------------------------8--7~----3---|
D#||---------------------------------------|


D#||----------------------------------------------------------------------------------|
A#||----------------------------------------------------------------------------------|
F#||--7-7-7-7-7-7-7-7-10-10-10-10-10-10-10-9-10-10-10-10-10-10-10-12---10---9------7--|
C#||--x-x-x-x-x-x-x-x-x--x--x--x--x--x--x--x-x--x--x--x--x--x--x--x----x----x------x--|
G#||--5-5-5-5-5-5-5-5-8--8--8--8--8--8--8--7-8--8--8--8--8--8--8--10---8----7------5--|
D#||----------------------------------------------------------------------------------|


D#||-----------------------------------------------------------------|
A#||-----------------------------------------------------------------|
F#||--10--7---7---5---7------12------10--9---9---7---9---5---10--9---|
C#||--x---x---x---x---x------x-------x---x---x---x---x---x---x---x---|
G#||--8---5---5---3---5------10------8---7---7---5---7---3---8---7---|
D#||-----------------------------------------------------------------|


Guitar 2:
D#||---------------------------------------|---------------------------------------------|
A#||---------------------------------------|---------------------------------------------|
F#||--77777777-33333333-55555555-----------|--77777777-33333333-555555555555----------5--|
C#||--77777777-33333333-55555555-55555555--|--77777777-33333333-555555555555--3-2~----5--|
G#||--55555555-11111111-33333333-55555555--|--55555555-11111111-333333333333--3-2~----3--|
D#||-----------------------------33333333--|----------------------------------1-0~-------|


D#||---------------------------------------|-------------------------------------|
A#||---------------------------------------|-------------------------------------|
F#||--77777777-33333333-55555555-----------|--3333333333333333-5555555555555555--|
C#||--77777777-33333333-55555555-55555555--|--3333333333333333-5555555555555555--|
G#||--55555555-11111111-33333333-55555555--|--1111111111111111-3333333333333333--|
D#||-----------------------------33333333--|-------------------------------------|



Breakdown
Guitar 1:
D#||--------------------------------------------------------------|
A#||--------------------------------------------------------------|
F#||--7--7--7-7---------------------7--7--7-7---------------------|
C#||--7--7--7-7---------------------7--7--7-7---------------------|
G#||--5--5--5-5--'5-'5-'5-'5-'5-'5--5--5--5-5--'5-'5-'5-'5-'5-'5--|
D#||--------------------------------------------------------------|


Guitar 2:
D#||--------------------------------------------------------------|
A#||--------------------------------------------------------------|
F#||--7--7--7-7---------------------7--7--7-7---------------------|
C#||--7--7--7-7---------------------7--7--7-7---------------------|
G#||--5--5--5-5---------------------5--5--5-5---------------------|
D#||--------------------------------------------------------------|


Guitar 1/2:
D#||-----------------------------------|
A#||-----------------------------------|
F#||----------5-55-55---------2-22-22--|
C#||--3-33-33-5-55-55-5-55-55-2-22-22--|
G#||--3-33-33-3-33-33-5-55-55-0-00-00--|
D#||--1-11-11---------3-33-33----------|


Guitar 1:
D#||--------------------------------------------------------------|
A#||--------------------------------------------------------------|
F#||--7--7--7-7---------------------7--7--7-7---------------------|
C#||--7--7--7-7---------------------7--7--7-7---------------------|
G#||--5--5--5-5--'5-'5-'5-'5-'5-'5--5--5--5-5--'5-'5-'5-'5-'5-'5--|
D#||--------------------------------------------------------------|


Guitar 2:
D#||--------------------------------------------------------------|
A#||--------------------------------------------------------------|
F#||--7--7--7-7---------------------7--7--7-7---------------------|
C#||--7--7--7-7---------------------7--7--7-7---------------------|
G#||--5--5--5-5---------------------5--5--5-5---------------------|
D#||--------------------------------------------------------------|


Guitar 1:
D#||----------------------------------------------------|
A#||----------------------------------------------------|
F#||--10---9---7--9---7---5---12---10---9--10---9---5---|
C#||--x----x---x--x---x---x---x----x----x--x----x---x---|
G#||--8----7---5--7---5---3---10---8----7--8----7---3---|
D#||----------------------------------------------------|


Guitar 2:
D#||-----------------------------------|
A#||-----------------------------------|
F#||----------5-55-55---------2-22-22--|
C#||--3-33-33-5-55-55-5-55-55-2-22-22--|
G#||--3-33-33-3-33-33-5-55-55-0-00-00--|
D#||--1-11-11---------3-33-33----------|



Bridge
Guitar 1/2:
D#||-------------------------------------------------------|
A#||-------------------------------------------------------|
F#||--7-77-77-7-77-77-7-77-77-7-77-77------5555------2222--| x2
C#||--7-77-77-7-77-77-7-77-77-7-77-77-3333-5555-5555-2222--|
G#||--5-55-55-5-55-55-5-55-55-5-55-55-3333-3333-5555-0000--|
D#||----------------------------------1111------3333-------|


D#||--------------------------------------------------------------------|
A#||--------------------------------------------------------------------|
F#||--3-33-33-3-33-33-3-33-33-------------------------------------------|
C#||--3-33-33-3-33-33-3-33-33-3-33-33-5-55-55-5-55-55-5-55-55-3-33-33---|
G#||--1-11-11-1-11-11-1-11-11-3-33-33-5-55-55-5-55-55-5-55-55-3-33-33---|
D#||--------------------------1-11-11-3-33-33-3-33-33-3-33-33-1-11-11---|


D#||--------------------------------------------------------------------|
A#||--------------------------------------------------------------------|
F#||--2-22-22-2-22-22-2-22-22-2-22-22-3-33-33-3-33-33--5----------------|
C#||--2-22-22-2-22-22-2-22-22-2-22-22-3-33-33-3-33-33--5-5-5-5-5-5-5-5--|
G#||--0-00-00-0-00-00-0-00-00-0-00-00-1-11-11-1-11-11--3-3-3-3-3-3-3-3--|
D#||--------------------------------------------------------------------|
                                                         . . . . . . .


Interlude
Guitar 1:
D#||--------5--------------1--------------1-------0--------0------|
A#||------3----3---------3----3---------3----3-------3-------3----|
F#||----2--------2-----2--------2-----2--------2-------2-------2--|
C#||--0-----------------------------------------------------------|
G#||-----------------1--------------3-----------------------------|
D#||--------------------------------------------------------------|


D#||--------5--------------1-----------------------------------8--|
A#||------3----3---------3----3-------3----3---3---3---3--3/5h6---|
F#||----2--------2-----2--------2-----0----0---0-----0------------|
C#||--0-------------------------------0---------------------------|
G#||-----------------1--------------------------------------------|
D#||--------------------------------------------------------------|


D#||--------5--------------1--------------1-------0--------0------|
A#||------3----3---------3----3---------3----3-------3-------3----|
F#||----2--------2-----2--------2-----2--------2-------2-------2--|
C#||--0-----------------------------------------------------------|
G#||-----------------1--------------3-----------------------------|
D#||--------------------------------------------------------------|


D#||--------5--------------1--------------------------------------|
A#||------3----3---------3----3------3-----3----3-----------------|
F#||----2--------2-----2--------2----0-----0----0-----------------|
C#||--0------------------------------0----------------------------|
G#||-----------------1--------------------------------------------|
D#||--------------------------------------------------------------|


Guitar 2:
D#||------------------|-------------------------------------------------------|
A#||------------------|-------------------------------------------------------|
F#||--------7~--------|-----7~-----3~-----5~----------7~-----3~-----5~-----5--|
C#||--------7~--------|-----7~-----3~-----5~----------7~-----3~-----5~-----5--|
G#||--------5~--------|-----5~-----1~-----3~----------5~-----1~-----3~-----3--|
D#||------------------|-------------------------------------------------------|



Chorus
Guitar 1:
D#||----------------------------------------------------|
A#||--10-10-10-10-10-10-10-8-10-10-10-10-10-10-10-10-8--|
F#||--10-10-10-10-10-10-10-9-10-10-10-10-10-10-10-10-9--|
C#||----------------------------------------------------|
G#||----------------------------------------------------|
D#||----------------------------------------------------|


D#||--------------------------------------------|
A#||--10-10-10-10-10-10-10-11-8-8-8-8-8-8-8-8---|
F#||--10-10-10-10-10-10-10-12-9-9-9-9-9-9-9-9---|
C#||--------------------------------------------|
G#||--------------------------------------------|
D#||--------------------------------------------|


D#||----------------------------------------------------|
A#||--10-10-10-10-10-10-10-10-11-11-11-11-11-11-11-11---|
F#||--10-10-10-10-10-10-10-10-12-12-12-12-12-12-12-12---|
C#||----------------------------------------------------|
G#||----------------------------------------------------|
D#||----------------------------------------------------|


D#||-----------------------------------|
A#||--8-8-8-8-8-8-8-8-8-8-8-8-8-8-8-8--|
F#||--9-9-9-9-9-9-9-9-9-9-9-9-9-9-9-9--|
C#||-----------------------------------|
G#||-----------------------------------|
D#||-----------------------------------|


D#||-----------------------------------------------------------------------------------------|
A#||-----------------------------------------------------------------------------------------|
F#||--10-10-10-10-10-10-10-9-10-10-10-10-10-10-10-9-10-10-10-10-10-10-10-12---10--9---7---5--|
C#||--x--x--x--x--x--x--x--x-x--x--x--x--x--x--x--x-x--x--x--x--x--x--x--x----x---x---x---x--|
G#||--8--8--8--8--8--8--8--7-8--8--8--8--8--8--8--7-8--8--8--8--8--8--8--10---8---7---5---3--|
D#||-----------------------------------------------------------------------------------------|


D#||---------------------------------------------------------------|
A#||---------------------------------------------------------------|
F#||--10--7---7---5---7------7/10---10--9---9---7---9------5---7---|
C#||--x---x---x---x---x------x/x----x---x---x---x---x------x---x---|
G#||--8---5---5---3---5------5/8----8---7---7---5---7------3---5---|
D#||---------------------------------------------------------------|


D#||----------------------------------------------------------------|
A#||----------------------------------------------------------------|
F#||--10--7---7---5---7------12------10--9---9---7---9------10--9---|
C#||--x---x---x---x---x------x-------x---x---x---x---x------x---x---|
G#||--8---5---5---3---5------10------8---7---7---5---7------8---7---|
D#||----------------------------------------------------------------|


Guitar 2:
D#||---------------------------------------|------------------------------------------|
A#||---------------------------------------|------------------------------------------|
F#||--77777777-33333333-55555555-----------|--77777777-33333333-55555555555555555555--|
C#||--77777777-33333333-55555555-55555555--|--77777777-33333333-55555555555555555555--|
G#||--55555555-11111111-33333333-55555555--|--55555555-11111111-33333333333333333333--|
D#||-----------------------------33333333--|------------------------------------------|


D#||---------------------------------------|-------------------------------------|
A#||---------------------------------------|-------------------------------------|
F#||--77777777-33333333-55555555-----------|--3333333333333333-5555555555555555--|
C#||--77777777-33333333-55555555-55555555--|--3333333333333333-5555555555555555--|
G#||--55555555-11111111-33333333-55555555--|--1111111111111111-3333333333333333--|
D#||-----------------------------33333333--|-------------------------------------|


D#||-------------------------------------|
A#||-------------------------------------|
F#||--7777777777777777-5555555555555555--|
C#||--7777777777777777-5555555555555555--|
G#||--5555555555555555-3333333333333333--|
D#||-------------------------------------|



Outro
Guitar 1:
D#||--------------------------------------|
A#||--------------------------------------|
F#||--7--7--7-7---------------7--7--7-7---|
C#||--7--7--7-7---------------7--7--7-7---|
G#||--5--5--5-5--5-5-5-5-5-5--5--5--5-5---|
D#||--------------------------------------|
                 . . . . . .

Guitar 2:
D#||--------------------------------------|
A#||--------------------------------------|
F#||--7--7--7-7---------------7--7--7-7---|
C#||--7--7--7-7---------------7--7--7-7---|
G#||--5--5--5-5---------------5--5--5-5---|
D#||--------------------------------------|





Tablature Legend
----------------
 h   - hammer-on
 p   - pull-off
 b   - bend
 r   - release bend
 *   - pinch harmonic
 '   - natural harmonic
 x   - mute note
 .   - palm mute
 /   - slide down
 \   - slide up
Добавлено: 11.05.2012
Другие материалы по этой песне:

Страница создана 25.03.2012
http://primanota.ru/rise-against/survivor-guilt-chords.htm
Привет, Гость.
Предлагаем пройти революционный курс по гитаре.
Подарок от PrimaNota.Ru, забирай!