PrimaNota.ru - самый крупный в мире бесплатный архив песенных текстов, аккордов, табулатур и нот


Rise Against - State Of The Union - текст песни, таба, бас-таба, видео

Регистрация Запомнить меня
Войти через:  Facebook Google Twitter Vk Yandex Mail.ru

Rise Against - State Of The Union - текст песни, таба, бас-таба, видео

Печатать
Просмотров: 409
Авторы музыки: Tim McIlrath, Brandon Barnes, Joe Principe
Авторы текста: Tim McIlrath
State of The Union- Rise Against

there was no tab that seemed very 
acurrate at this part so i decided to tab it

Tuning: Drop D


|------------------------------------------------------------------
|------------------------------------------------------------------
|------------------------------------------------------------------
|----77777----33-55-6------77777----33-55-6-------77777----33-55-6-
|----55555----33-55-6------55555----33-55-6-------55555----33-55-6-
|-------------33-55-6---------------33-55-6----------------33-55-6-

|------------------------------------------------------------------
|------------------------------------------------------------------
|------------------------------------------------------------------
|5-3-5-6-5-3-0-----------------------------------------------------
|5-3-5-6-5-3-0-----------------------------------------------------
|5-3-5-6-5-3-0-----------------------------------------------------



-Mr. S
Добавлено: 02.05.2012
Другие материалы по этой песне:

Страница создана 30.03.2012
http://primanota.ru/rise-against/state-of-the-union-chords.htm
Привет, Гость.
Предлагаем пройти революционный курс по гитаре.
Подарок от PrimaNota.Ru, забирай!