PrimaNota.ru - самый крупный в мире бесплатный архив песенных текстов, аккордов, табулатур и нот


Rise Against - Minor Threat - таба, видео

Регистрация Запомнить меня
Войти через:  Facebook Google Twitter Vk Yandex Mail.ru

Rise Against - Minor Threat - таба, видео

Печатать
Просмотров: 94
Авторы музыки: Minor Threat
Авторы текста: Ian MacKaye
-------------------------------------------------------------------------------
                             MINOR THREAT - RISE AGAINST
-------------------------------------------------------------------------------
Tabbed by: shackleford110
E-mail: shacklefordthe3rd@gmail.com
difficulty: pretty easy
Tuning: half step down

This is Rise Against's cover of Minor Threat's song "Minor Threat" as played on the 
album "Long Forgotten
Songs: B-Sides and Covers"
there were no other tabs for this song and its super simple so i made this one. Please rate!

         INTRO
e|-------------------------------|
B|-------------------------------|
G|--5555----------7777---33------|
D|--5555---5555---7777---33--33--|
A|--3333---5555---5555---11--33--|
E|---------3333--------------11--|

         VERSE
e|-------------------------------|
B|-------------------------------|
G|--5555----------7777---33------|
D|--5555---5555---7777---33--33--|
A|--3333---5555---5555---11--33--|
E|---------3333--------------11--|


         PRE CHORUS
e|----------------------|---------|
b|----------------------|---------|
g|-----44------44-77----|44----4~-|
d|-----44--55--44-77-77-|44-55-4~-|
a|-----22--55--22-55-55-|22-55-2~-|
E|---------33--------55-|---33----|

        CHORUS
e|--------------------------|
B|--------------------------|
G|-----5-------7---33-------|
D|-----5---5---7---33--33---|\
A|-----3---5---5---11--33---| \
E|---------3-----------11---|  \
                                                               |  /
e|--------------------------| /
B|--------------------------|/
G|----55--------77---33-----|
D|----55---55---77---33--33-|
A|----33---55---55---11--33-|
E|---------33------------11-|

ORDER:
INTRO X4
VERSE X4
PRE CHORUS X1
CHORUS X4
INTRO X2
VERSE X4
PRE CHORUS X1
CHORUS X4

Tim yells "F*** yeah!" and thats the song. for the chorus I'm not sure if you play those 
ones where i put
them once the first time and twice the second time just once, or is you play all of them 
twice, or all of
them like i have it, I apologize for that and I will make that change as soon as I know 
for sure. other than
that this tab is at least 95% accurate I'm pretty sure, so please leave a rating or a comment!

lyrics:

"alright, we wanna play a song by one of our favorite punk bands. this one, if you know 
it, is called Minor
Threat! here we go!

we're not the first, I hope we're not the last, but I know we're all headed, for that 
adult crash! and time
just a little, time belongs to us, so why's everybody   in such a fuckin' rush!? take 
your time, try not to
forget, we never will, we're just a minor threat!
we're just, a minor threat! yeah we're just, a minor threat! so we're just, a minor 
threat! yeah we're just,
a minor threat!
and I was early to finish, i was late to start, I might be an adult, I'm a minor at 
heart! so go to college,
be a man, whats the fuckin' deal? its not how old I am, its how old i feel! make do with 
what you have, take
what you can get, and pay no mind to us, we're just a minor threat!
we're just, a minor threat! yeah we're just, a minor threat! so we're just, a minor 
threat! yeah we're just,
a minor threat!
Fuck yeah!"

please rate! rock on!
Добавлено: 27.08.2015
Другие материалы по этой песне:

Страница создана 27.03.2012
http://primanota.ru/rise-against/minor-threat-chords.htm
Привет, Гость.
Предлагаем пройти революционный курс по гитаре.
Подарок от PrimaNota.Ru, забирай!