PrimaNota.ru - самый крупный в мире бесплатный архив песенных текстов, аккордов, табулатур и нот


Rise Against - The Great Die-off - текст песни, таба, бас-таба, видео

Регистрация Запомнить меня
Войти через:  Facebook Google Twitter Vk Yandex Mail.ru

Rise Against - The Great Die-off - текст песни, таба, бас-таба, видео

Печатать
Просмотров: 190
Уроки эстрадного вокала в Санкт-Петербурге
----------------------------------------------------------------------------
                        The Great Die-Off - Rise Against
----------------------------------------------------------------------------
Tabbed By: MrPurple5106
Email: mrpurple5106@gmail.com
Tuning: [ Db Ab Db Gb Bb eb ]

Intro
E|-----------------------------------------------------------------------------|
B|-----------------------------------------------------------------------------|
G|-----------------------------------------------------------------------------|
D|--------------------------------------------------------------5*-------------|
A|----------------------------1--1-1-------------------------------------------|
E|-03--0--5--0--7-8-7~--0--3--1--1-1--3--0--5--0--7-8-7~--0--3-----------------|
   .

Verse
E|-----------------------------------------------------------------------------|
B|-----------------------------------------------------------------------------|
G|-5/7----5/7-77---------------------------------------------------------------|
D|-5/7----5/7-77-3+------------------------------------------------------------| x4
A|-3/5----3/5-55-3+------------------------------------------------------------|
E|---------------3+------------------------------------------------------------|
 
E|-----------------------------------------------------------------------------|
B|-----------------------------------------------------------------------------|
G|-----------------3-33-33-3-33-33-7-77-77-7-77-77-5-55-55-5-55-55-------------|
D|-5-55-53-5-55-53-3-33-33-3-33-33-7-77-77-7-77-77-5-55-55-5-55-55-------------|
A|-5-55-53-5-55-53-1-11-11-1-11-11-5-55-55-5-55-55-3-33-33-3-33-33-------------|
E|-5-55-53-5-55-53-------------------------------------------------------------|

E|-----------------------------------------------------------------------------|
B|-----------------------------------------------------------------------------|
G|-----------------3-----------------------------------------------------------|
D|-5-55-53-5-55-53-3-3-3-3-5-5-5-5---------------------------------------------|
A|-5-55-53-5-55-53-1-1-1-1-3-3-3-3---------------------------------------------|
E|-5-55-53-5-55-53-------------------------------------------------------------|
                     . . . . . . .

Pre-Chorus 1                  
E|-----------------------------------------------------------------------------|
B|-101010101010108-8-8-6-x-x-x-------------------------------------------------|
G|-7-7-7-7-7-7-7-7-7-7-7-x-x-x-3-----------------------------------------------|
D|-----------------------------3-(x8)-3------5---------------------------------|
A|-----------------------------1------3-(x4)-5-(x4)----------------------------|
E|------------------------------------3------5---------------------------------|

Chorus
E|-----------------------------------------------------------------------------|
B|-----------------------------------------------------------------------------|
G|-7-------------3--------------------7-------------3-------------5------------|
D|-7-(x8)-5------3-(x8)-3------5------7-(x8)-5------3-(x8)-3------5-(x4)-------| x2
A|-5------5-(x8)-1------3-(x4)-5-(x4)-5------5-(x8)-1------3-(x4)-3------------|
E|--------5-------------3------5-------------5-------------3-------------------|
  (For 1st chorus, don't play the
     section above this text)

Post-Chorus
E|-----------------------------------------------------------------------------|
B|-----------------------------------------------------------------------------|
G|--------7+-------------------------------------------------------------------|
D|--------7+-------------------------------------------------------------------|
A|--------5+-------------------------------------------------------------------|
E|-03--0-----------------------------------------------------------------------|
   .

Verse (during pauses, PM strings)

Chorus

Bridge
E|-----------------------------------------------------------------------------|
B|-----------------------------------------------------------------------------|
G|-5/7/109/7-7/12-11111111----5/7/109/7-7/12-111112/14-------------------------|
D|-x/x/x\x\x-x/x--x-x-x-x-----x/x/x\x\x-x/x--x-x/x-/x--------------------------| x2
A|-3/5/8\7\5-5/10-9-9-9-9-----3/5/8\7\5-5/10-9-9/10/12-------------------------|
E|-----------------------------------------------------------------------------|

E|-----------------------------------------------------------------------------|
B|-----------------------------------------------------------------------------|
G|-10-1010-1012-1212-12-12-14-1414-1415-1515-15-15-----------------------------|
D|-----------------------------------------------------------------------------| x2
A|-----------------------------------------------------------------------------|
E|-----------------------------------------------------------------------------|

Interlude (a 2nd guitar plays a natural harmonic on the 7th fret of the G-string)
E|-----------------------------------------------------------------------------|
B|-----------------------------------------------------------------------------|
G|-5/7----5/7--5/7------5/7----5/7--5/7------5/7----5/7--5/7-------------------|
D|-5/7----5/7--5/7--3+--5/7----5/7--5/7--3+--5/7----5/7--5/7--5+---------------|
A|-3/5----3/5--3/5--3+--3/5----3/5--3/5--3+--3/5----3/5--3/5--5+---------------|
E|------------------3+-------------------3+-------------------5+---------------|

Chorus

Post-Chorus
E|-----------------------------------------------------------------------------|
B|-----------------------------------------------------------------------------|
G|-3------5------3------5------3------5------7+--------------------------------|
D|-3-(x8)-5-(x8)-3-(x8)-5-(x8)-3-(x8)-5-(x7)-7+--------------------------------|
A|-1------3------1------3------1------3------5+--------------------------------|
E|-------------------------------------------0+--------------------------------|

************************************

| /   slide up
| \   slide down
| h   hammer-on
| p   pull-off
| ~   vibrato
| *   harmonic
| x   Mute note
| b   Bend
| pb  Pre-bend
| br  Bend release
| pbr Pre-bend release
| brb Bend release bend
| +   Let ring
| .   Palm mute

************************************
Добавлено: 27.08.2015
Другие материалы по этой песне:
  • Аккорды и текст

Страница создана 23.08.2014
http://primanota.ru/rise-against/great-die-off-chords.htm
Привет, Гость.
Предлагаем пройти революционный курс по гитаре.
Подарок от PrimaNota.Ru, забирай!