PrimaNota.ru - самый крупный в мире бесплатный архив песенных текстов, аккордов, табулатур и нот


Rise Against - Grammatizator - таба, бас-таба, видео

Регистрация Запомнить меня
Войти через:  Facebook Google Twitter Vk Yandex Mail.ru

Rise Against - Grammatizator - таба, бас-таба, видео

Печатать
Просмотров: 179
Hey Guys!!! I'm new to the whole tab by ear thing and this is my first tab but i 
think i got this one 100% correct. Enjoy!

Song: Grammatizator
Track: 1 of 2
Artist: Rise Against
Album: Grammatizator (Digital 45)/Rise Against 7"
Tuning: Dropped D
Tab Type: Rhythm Guitar

Intro (Heavy Distortion)
E|----Those are 13 not 1s & 3s----------------|
B|--------------------------------------------|
G|----Do a pick slide after the last chord----|
D|--13-13-13-13-13-13-13-13-------------------|
A|--13-13-13-13-13-13-13-13-------------------|
D|--13-13-13-13-13-13-13-13-------------------|
                ^Bass enters with verse 1 riff but on the low E(D) only
Verse 1 (Heavy Distortion)
E|--10s not 1s & 0s---------------------------|
B|--------------------------------------------|
G|--------------------------------------------|
D|--66-7-6-10-666666-6-7-6-10101010101010-----|
A|--66-7-6-10-666666-6-7-6-10101010101010-----|
D|--66-7-6-10-666666-6-7-6-10101010101010-----|

E|--------------------------------------------|
B|--------------------------------------------|
G|--------------------------------------------|
D|--66-7-6-10-666666-6-7-6-10-9-8-6-----------|
A|--66-7-6-10-666666-6-7-6-10-9-8-6-----------|
D|--66-7-6-10-666666-6-7-6-10-9-8-6-----------|

E|--------------------------------------------|
B|--------------------------------------------|
G|--------------------------------------------|
D|--6-7-6-10-666666-6-7-6-10101010101010------|
A|--6-7-6-10-666666-6-7-6-10101010101010------|
D|--6-7-6-10-666666-6-7-6-10101010101010------|

E|--------------------------------------------|
B|--------------------------------------------|
G|--------------------------------------------|
D|--6-7-6-10-666666-6-7-6-10101010101010------|
A|--6-7-6-10-666666-6-7-6-10101010101010------|
D|--6-7-6-10-666666-6-7-6-10101010101010------|

Chorus (Heavy Distortion)
E|----------------------------------------------------------------------|
B|----------------------------------------------------------------------|
G|----------------------------------------------------------------------|
D|--1--1----3--3----10-10-10-10-10-11--10-10-10-10-10-11-10-8-----------|
A|--1--1----3--3----10-10-10-10-10-11--10-10-10-10-10-11-10-8-----------|
D|--1--1----3--3----10-10-10-10-10-11--10-10-10-10-10-11-10-8-----------|

E|----------------------------------------------------------------------|
B|----------------------------------------------------------------------|
G|----------------------------------------------------------------------|
D|--6-6-6-6-6-11-11-11-11-11-10-10-10-10-10-11--10-10-10-10-10-10-10----|
A|--6-6-6-6-6-11-11-11-11-11-10-10-10-10-10-11--10-10-10-10-10-10-10----|
D|--6-6-6-6-6-11-11-11-11-11-10-10-10-10-10-11--10-10-10-10-10-10-10----|

E|----------------------------------------------------------------------|
B|----------------------------------------------------------------------|
G|----------------------------------------------------------------------|
D|--1--1----3--3----10-10-10-10-10-11--10-10-10-10-10-11-10-8-----------|
A|--1--1----3--3----10-10-10-10-10-11--10-10-10-10-10-11-10-8-----------|
D|--1--1----3--3----10-10-10-10-10-11--10-10-10-10-10-11-10-8-----------|

E|----------------------------------------------------------------------|
B|----------------------------------------------------------------------|
G|----------------------------------------------------------------------|
D|--6-6-6-6-6-11-11-11-11-11-10-10-10-10-10-11--10-10-10-10-10-10-10----|
A|--6-6-6-6-6-11-11-11-11-11-10-10-10-10-10-11--10-10-10-10-10-10-10----|
D|--6-6-6-6-6-11-11-11-11-11-10-10-10-10-10-11--10-10-10-10-10-10-10----|

Verse 2 (Heavy Distortion)
E|--------------------------------------------|
B|--------------------------------------------|
G|--------------------------------------------|
D|--66-7-6-10-666666-6-7-6-10101010101010-----|
A|--66-7-6-10-666666-6-7-6-10101010101010-----|
D|--66-7-6-10-666666-6-7-6-10101010101010-----|

E|--------------------------------------------|
B|--------------------------------------------|
G|--------------------------------------------|
D|--6-7-6-10-666666-6-7-6-10101010101010------|
A|--6-7-6-10-666666-6-7-6-10101010101010------|
D|--6-7-6-10-666666-6-7-6-10101010101010------|

Chorus (Heavy Distortion)
E|----------------------------------------------------------------------|
B|----------------------------------------------------------------------|
G|----------------------------------------------------------------------|
D|--1--1----3--3----10-10-10-10-10-11--10-10-10-10-10-11-10-8-----------|
A|--1--1----3--3----10-10-10-10-10-11--10-10-10-10-10-11-10-8-----------|
D|--1--1----3--3----10-10-10-10-10-11--10-10-10-10-10-11-10-8-----------|

E|----------------------------------------------------------------------|
B|----------------------------------------------------------------------|
G|----------------------------------------------------------------------|
D|--6-6-6-6-6-11-11-11-11-11-10-10-10-10-10-11--10-10-10-10-10-10-10----|
A|--6-6-6-6-6-11-11-11-11-11-10-10-10-10-10-11--10-10-10-10-10-10-10----|
D|--6-6-6-6-6-11-11-11-11-11-10-10-10-10-10-11--10-10-10-10-10-10-10----|

E|----------------------------------------------------------------------|
B|----------------------------------------------------------------------|
G|----------------------------------------------------------------------|
D|--1--1----3--3----10-10-10-10-10-11--10-10-10-10-10-11-10-8-----------|
A|--1--1----3--3----10-10-10-10-10-11--10-10-10-10-10-11-10-8-----------|
D|--1--1----3--3----10-10-10-10-10-11--10-10-10-10-10-11-10-8-----------|

E|----------------------------------------------------------------------|
B|----------------------------------------------------------------------|
G|----------------------------------------------------------------------|
D|--6-6-6-6-6-11-11-11-11-11--------------------------------------------|
A|--6-6-6-6-6-11-11-11-11-11--------------------------------------------|
D|--6-6-6-6-6-11-11-11-11-11--------------------------------------------|

Bridge
E|----------------------------------------------------------------------|
B|----------------------------------------------------------------------|
G|----------------------------------------------------------------------|
D|--10--10--13-15-16-15---10--10--13-15-16-16-16-16---------------------|
A|--10--10--13-15-16-15---10--10--13-15-16-16-16-16---------------------|
D|--10--10--13-15-16-15---10--10--13-15-16-16-16-16---------------------|
PM    ..  ..                ..  ..

E|----------------------------------------------------------------------|
B|----------------------------------------------------------------------|
G|----------------------------------------------------------------------|
D|--10--10--13-15-16-15---6-6-6-6-6-11-11-11-11-11----------------------|
A|--10--10--13-15-16-15---6-6-6-6-6-11-11-11-11-11----------------------|
D|--10--10--13-15-16-15---6-6-6-6-6-11-11-11-11-11----------------------|
PM    ..  ..

E|----------------------------------------------------------------------|
B|----------------------------------------------------------------------|
G|----------------------------------------------------------------------|
D|--10--10--13-15-16-15---10--10--13-15-16-16-16-16---------------------|
A|--10--10--13-15-16-15---10--10--13-15-16-16-16-16---------------------|
D|--10--10--13-15-16-15---10--10--13-15-16-16-16-16---------------------|
PM    ..  ..                ..  ..

E|----------------------------------------------------------------------|
B|----------------------------------------------------------------------|
G|----------------------------------------------------------------------|
D|--10--10--13-15-16-15---6-6-6-6-6-11-11-11-11-11----------------------|
A|--10--10--13-15-16-15---6-6-6-6-6-11-11-11-11-11----------------------|
D|--10--10--13-15-16-15---6-6-6-6-6-11-11-11-11-11----------------------|
PM    ..  ..

Fill/Solo
E|--15s not 1s & 5s--------------------------------------------------------|
B|-------------------------------------------------------------------------|
G|-------------------------------------------------------------------------|
D|--1515151515151515--888--13-13--1515151515151515--888--6-6---------------|
A|--1515151515151515--888--13-13--1515151515151515--888--6-6---------------|
D|--1515151515151515--888--13-13--1515151515151515--888--6-6---------------|

E|-------------------------------------------------------------------------|
B|-------------------------------------------------------------------------|
G|-------------------------------------------------------------------------|
D|--1515151515151515--888--13-13--6-6-6-6-6-6-6-6-11-11-11-11-11-11-11-11--|
A|--1515151515151515--888--13-13--6-6-6-6-6-6-6-6-11-11-11-11-11-11-11-11--|
D|--1515151515151515--888--13-13--6-6-6-6-6-6-6-6-11-11-11-11-11-11-11-11--|

Chorus/Outro
E|----------------------------------------------------------------------|
B|----------------------------------------------------------------------|
G|----------------------------------------------------------------------|
D|--1--1----3--3----10-10-10-10-10-11--10-10-10-10-10-11-10-8-----------|
A|--1--1----3--3----10-10-10-10-10-11--10-10-10-10-10-11-10-8-----------|
D|--1--1----3--3----10-10-10-10-10-11--10-10-10-10-10-11-10-8-----------|

E|----------------------------------------------------------------------|
B|----------------------------------------------------------------------|
G|----------------------------------------------------------------------|
D|--6-6-6-6-6-11-11-11-11-11-10-10-10-10-10-11--10-10-10-10-10-10-10----|
A|--6-6-6-6-6-11-11-11-11-11-10-10-10-10-10-11--10-10-10-10-10-10-10----|
D|--6-6-6-6-6-11-11-11-11-11-10-10-10-10-10-11--10-10-10-10-10-10-10----|

E|----------------------------------------------------------------------|
B|----------------------------------------------------------------------|
G|----------------------------------------------------------------------|
D|--1--1----3--3----10-10-10-10-10-11--10-10-10-10-10-10-10-------------|
A|--1--1----3--3----10-10-10-10-10-11--10-10-10-10-10-10-10-------------|
D|--1--1----3--3----10-10-10-10-10-11--10-10-10-10-10-10-10-------------|

E|----------------------------------------------------------------------|
B|----------------------------------------------------------------------|
G|----------------------------------------------------------------------|
D|--6-6-6-6-6-11-11-11-11-11--10-10-10-10-10-11-10-10-10-10-10----------|
A|--6-6-6-6-6-11-11-11-11-11--10-10-10-10-10-11-10-10-10-10-10----------|
D|--6-6-6-6-6-11-11-11-11-11--10-10-10-10-10-11-10-10-10-10-10----------|

E|--On the last chord, let ring and then slide down to 1 then release---|
B|----------------------------------------------------------------------|
G|----------------------------------------------------------------------|
D|--6-6-6-6-11-11-11-11-11-11-10----------------------------------------|
A|--6-6-6-6-11-11-11-11-11-11-10----------------------------------------|
D|--6-6-6-6-11-11-11-11-11-11-10----------------------------------------|



Hope You Enjoyed!!!
Rise Against Forever!!!
Добавлено: 28.03.2012
Другие материалы по этой песне:
  • Аккорды и текст

Страница создана 28.03.2012
http://primanota.ru/rise-against/grammatizator-chords.htm
Привет, Гость.
Предлагаем пройти революционный курс по гитаре.
Подарок от PrimaNota.Ru, забирай!