PrimaNota.ru - самый крупный в мире бесплатный архив песенных текстов, аккордов, табулатур и нот


Rise Against - Elective Amnesia - текст песни, таба, бас-таба, видео

Регистрация Запомнить меня
Войти через:  Facebook Google Twitter Vk Yandex Mail.ru

Rise Against - Elective Amnesia - текст песни, таба, бас-таба, видео

Печатать
Просмотров: 319
This is my First Real Tab, I Did one tab with just chords, but this is my real 
first tab, hope you guys like it.

Tuning: Drop D

Intro:
e|------------------------| (x8)
B|------------------------|
G|------4-------6---------|
D|----6---6---6---6-------|
A|--6-------4-------------|
D|------------------------|


e|--------------------------------------------------------------------------------------|
B|--------------------------------------------------------------------------------------|
G|-----6/8\6--------6/8\6--------------6/8\6--------------------------------------------|
D|---6------------6-------9-8-9------6-----------6--8/9\8--6-4-6------------------------|
A|-6------------6------------------6-----------7----------------------------------------|
D|--------------------------------------------------------------------------------------|


Verse 1:
e|-------------------------------------------------------------------------|
B|-------------------------------------------------------------------------|
G|-------------------------------------------------------------------------|
D|--6---------------6------------------------------------------------------|
A|--6---------------6------------------------------------------------------|
D|--6---------------6----pickslide***************************************--|

e|-----------------------------------|
B|-----------------------------------|
G|---------------x66666666-----------|(x4)
D|--x666666666---x66666666-----------|
A|--x666666666---x44444444-----------|
D|--x666666666-----------------------|

Pre-Chorus:

e|--------------------------------------------------|
B|--------------------------------------------(x2)--|
G|--------------------------------------------------|
D|--x2222222222222222----x4444444444444444----------|
A|--x2222222222222222----x4444444444444444----------|
D|--x2222222222222222----x4444444444444444----------|

Chorus:


e|-------------------------------------------------------------------------|
B|-------------------------------------------------------------------------|
G|-------------------------------------------------------------------------|
D|---6666666666666666----9999999999999999----22222222--44444444--22222222--|
A|---6666666666666666----9999999999999999----22222222--44444444--22222222--|
D|---6666666666666666----9999999999999999----22222222--44444444--22222222--|

e|-------------------------------------------------------------------------------------|
B|------------------(x2)---------------------------------------------------------------|
G|-------------------------------------------------------------------------------------|
D|--44444444---------------------------------------------------------------------------|
A|--44444444---------------------------------------------------------------------------|
D|--44444444---------------------------------------------------------------------------|


 Post Chorus:

e|------------------------------------------|
B|------------------------------------------|
G|-----6/8\6-------8/9\8-6-4-6--------------|
D|---6-----------6--------------------------|
A|-6-----------7----------------------------|
D|------------------------------------------|


Verse 2:

e|-------------------------------------------------------------------------|
B|-------------------------------------------------------------------------|
G|-------------------------------------------------------------------------|
D|--6---------------6------------------------------------------------------|
A|--6---------------6------------------------------------------------------|
D|--6---------------6----pickslide***************************************--|

e|-----------------------------------|
B|-----------------------------------|
G|---------------x66666666-----------|(x4)
D|--x666666666---x66666666-----------|
A|--x666666666---x44444444-----------|
D|--x666666666-----------------------|

Pre-Chorus:

e|--------------------------------------------------|
B|--------------------------------------------(x2)--|
G|--------------------------------------------------|
D|--x2222222222222222----x4444444444444444----------|
A|--x2222222222222222----x4444444444444444----------|
D|--x2222222222222222----x4444444444444444----------|


Chorus:

e|-------------------------------------------------------------------------|
B|-------------------------------------------------------------------------|
G|-------------------------------------------------------------------------|
D|---6666666666666666----9999999999999999----22222222--44444444--22222222--|
A|---6666666666666666----9999999999999999----22222222--44444444--22222222--|
D|---6666666666666666----9999999999999999----22222222--44444444--22222222--|

e|-------------------------------------------------------------------------------------|
B|------------------(x2)---------------------------------------------------------------|
G|-------------------------------------------------------------------------------------|
D|--44444444---------------------------------------------------------------------------|
A|--44444444---------------------------------------------------------------------------|
D|--44444444---------------------------------------------------------------------------|

Bridge:

Guitar 1:
e|---------------------------------------------------------------------------------|
B|---------------------(x8)--------------------------------------------------------|
G|---------------6-6---------------------------------------------------------------|
D|---9-9-6-6-9-9-------------------------------------------------------------------|
A|---------------------------------------------------------------------------------|
D|---------------------------------------------------------------------------------|
Guitar 2:
e|------------------------------------------------------------------------------------|
B|------------------------------------------------------------------------------------|
G|------------------------------------------------------------------------------------|
D|-------------6---------9-------6---4-4--3-3-----------------------------------------|
A|-------------6---------9-------6---4-4--3-3-----------------------------------------|
D|-------------6---------9-------4---2-2--1-1-----------------------------------------|

e|----------------------------------------------------------------------------|
B|----------------------------------------------------------------------------|
G|----------------------------------------------------------------------------|
D|--6666666666666666-2222222222222222-44444444444444444444444444444444--(x2)--|
A|--6666666666666666-2222222222222222-44444444444444444444444444444444--------|
D|--6666666666666666-2222222222222222-44444444444444444444444444444444--------|

e|-Then:-------------------------------------------------------|
B|-------------------------------------------------------------|
G|-------------------------------------------------------------|
D|--------2222222222222222------4444444444444444---6-----(x2)--|
A|--------2222222222222222------4444444444444444---6-----------|
D|--------2222222222222222------4444444444444444---6-----------|


Final Chorus:

e|-------------------------------------------------------------------------|
B|-------------------------------------------------------------------------|
G|-------------------------------------------------------------------------|
D|---6666666666666666----9999999999999999----22222222--44444444--22222222--|
A|---6666666666666666----9999999999999999----22222222--44444444--22222222--|
D|---6666666666666666----9999999999999999----22222222--44444444--22222222--|

e|-------------------------------------------------------------------------------------|
B|------------------(x2)---------------------------------------------------------------|
G|-------------------------------------------------------------------------------------|
D|--44444444---------------------------------------------------------------------------|
A|--44444444---------------------------------------------------------------------------|
D|--44444444---------------------------------------------------------------------------|

End ON:
e|------------------------------------------------------------------------------|
B|------------------------------------------------------------------------------|
G|------------------------------------------------------------------------------|
D|--6---------------------------------------------------------------------------|
A|--6---------------------------------------------------------------------------|
D|--6---------------------------------------------------------------------------|

e|---------------------------------------------------------------------------|
B|---------------------------------------------------------------------------|
G|---------------------------------------------------------------------------|
D|---------------------------------------------------------------------------|
A|---------------------------------------------------------------------------|
D|---------------------------------------------------------------------------|


| /  slide up
| \  slide down
| h  hammer-on
| p  pull-off
| ~  vibrato
| +  harmonic
| x  Mute note
Добавлено: 25.05.2012
Другие материалы по этой песне:

Страница создана 27.04.2012
http://primanota.ru/rise-against/elective-amnesia-chords.htm
Привет, Гость.
Предлагаем пройти революционный курс по гитаре.
Подарок от PrimaNota.Ru, забирай!