PrimaNota.ru - самый крупный в мире бесплатный архив песенных текстов, аккордов, табулатур и нот


Rise Against - Death Blossoms - таба, бас-таба, видео

Регистрация Запомнить меня
Войти через:  Facebook Google Twitter Vk Yandex Mail.ru

Rise Against - Death Blossoms - таба, бас-таба, видео

Печатать
Просмотров: 235
Rise Against - Death Blossoms
Album: No album
Tuning: Standard eADGBE

UPDATE: Changed B Chord in verse to C# --- I think those are right :P srry if 
theyre not not too good at chords yet....

Ok, so my last tab (version 2) was wrong so disregard it,this one is better. cuz now i
ive got the right notes for the song!!! If its still wrong then watev. I needed to change
of it from version 2.

**** = Palm Mute
/ = Slide


E|----|  Strum this chord 31 times.  Its 31-----| because when you play it
B|----|  the 16-----|th time you play it as a quarter note and not an eighth note,
G|-12-|  31 times.  (ALL OTHERS ARE EIGHTH NOTES THOUGH)
D|--x-|
A|-10-|
e|----|

Verse

E|---------------------------|  Repeat 2x I think.
B|---------------------------|
G|---------------------------|
D|-6-6---------4-4-4--4-4-4--|
A|-x-x--4-4-4--2-2-2--4-4-4--|
e|-4-4--2-2-2----------------|

Play this before fill:

E|---------------------------|
B|---------------------------|
G|-4-4-4-4-4-4-4-4-----------|
D|-x-x-x-x-x-x-x-x-----------|
A|-2-2-2-2-2-2-2-2-----------|
e|---------------------------|


Fill
E|-------------|  I do not think strumming is tabbed
B|-55-555-44-2-|  correctly but these are the notes
G|-------------|  played.  Then play the verse again
D|-------------|  palm muted this time and the fill.
A|-------------|
e|-------------|

Chorus (16's,11's,13's,15's, not 1's,6's,3's,and 5's)

E|-----------------------------------------| Repeat.
B|-----------------------------------------|
G|-16-16--13-13-13-11-11-11-15-15-15-15----|
D|--x--x---x--x--x--x--x--x--x--x--x--x----|
A|-14-14--11-11-11--9--9--9-13-13-13-13----|
e|-----------------------------------------|

End Chorus with:

E|------------------|
B|------------------|
G|------------------|
D|-9-9-9-9-9-9-9-9--|
A|-x-x-x-x-x-x-x-x--|
e|-7-7-7-7-7-7-7-7--|

Verse 2

E|--------------------------------------| repeat 2x
B|--------------------------------------|
G|--------------------------------------|
D|-4-4-4-4------------------------------|
A|-2-2-2-2-6-6-6-6-4-4-4-4-8-8-8-8------|
e|---------4-4-4-4-2-2-2-2-6-6-6-6------|
   *******************************
Then play:

E|--------------------|
B|--------------------|
G|--------------------|
D|-9-9-9-9-9-9-9-9----|
A|-x-x-x-x-x-x-x-x----|
e|-7-7-7-7-7-7-7-7----|

(Play Fill)

Verse 2, Part 2
E|----------------------------|
B|----------------------------|
G|-16-16-13-13-11-11-15-15-15-|
D|--x--x--x--x--x--x--x--x--x-|
A|-14-14-11-11--9--9-13-13-13-|
e|----------------------------|

Repeat this pattern as much as needed and then:

E|--------------------|
B|--------------------|
G|--------------------|
D|-9-9-9-9-9-9-9-9----|
A|-x-x-x-x-x-x-x-x----|
e|-7-7-7-7-7-7-7-7----|


(Play Fill)
(Play Chorus)

Pre-Solo

E|----------------------|
B|----------------------|
G|----------------------|
D|-9-11-13-11-9-8-6-4-6-|
A|-9-11-13-11-9-8-6-4-6-|
e|-7--9-11--9-7-6-4-2-4-|

Solo

E|-------------------------------------------------------------------------|
B|0-0-0-0-0-0-0-0-0-2-4-4-4-4-4-4-4-4-225-5-5-5-5-5-5-5-4-4-4-4-4-4-4-4-4-2|
G|-------------------------------------------------------------------------|
D|-------------------------------------------------------------------------|
A|-------------------------------------------------------------------------|
e|-------------------------------------------------------------------------|

E|-------------------------------------------------------------------------|
B|-------------------------------------------------------------------------|
G|-4-4-4-8-8-8-6--4-4-4-8-8-8-6--4-4-4-8-8-8-6--4-4-4-6-6-6-4--------------|
D|-x-x-x-x-x-x-x--x-x-x-x-x-x-x--x-x-x-x-x-x-x--x-x-x-x-x-x-x--------------|
A|-2-2-2-6-6-6-4--2-2-2-6-6-6-4--2-2-2-6-6-6-4--2-2-2-4-4-4-2--------------|
e|-------------------------------------------------------------------------|

E|-------------------------------------------------------------------------|
B|-------------------------------------------------------------------------|
G|-4-4-4-4-6-6-6-6-8-8-8-8-6--4-8-8-8-8-12-12-12-12-15-15-15-15-18-18-18-18|
D|-x-x-x-x-x-x-x-x-x-x-x-x-x--x-x-x-x-x--x--x--x--x--x--x--x--x--x--x--x--x|
A|-2-2-2-2-4-4-4-4-6-6-6-6-4--2-6-6-6-6-10-10-10-10-13-13-13-13-16-16-16-16|
e|-------------------------------------------------------------------------|

E|---|
B|---|
G|---|
D|-9-|
A|-x-|
e|-7-|

Bridge

E|-xxx-x-x-x-|
B|-xxx-x-x-x-|
G|-xxx-x-x-x-|
D|-xxx-x-x-x-|
A|-xxx-x-x-x-|
e|-xxx-x-x-x-|

(Repeat Verse)
(Play Chorus )
(Right before song ends you play the pre solo)

Please rate this tab good! I think its a really good tab!!!
Please take note that ive only been playing
for a year and I figured the song out by ear!!!!!!
Добавлено: 20.04.2012
Другие материалы по этой песне:

Страница создана 17.04.2012
http://primanota.ru/rise-against/death-blossoms-chords.htm
Привет, Гость.
Предлагаем пройти революционный курс по гитаре.
Подарок от PrimaNota.Ru, забирай!