PrimaNota.ru - самый крупный в мире бесплатный архив песенных текстов, аккордов, табулатур и нот


Rise Against - Bricks - текст песни, таба, бас-таба, драм-таба, видео

Регистрация Запомнить меня
Войти через:  Facebook Google Twitter Vk Yandex Mail.ru

Rise Against - Bricks - текст песни, таба, бас-таба, драм-таба, видео

Печатать
Просмотров: 295
Artist : Rise Against
Song : Bricks
Album : The Sufferer & The Witness
Tuning : Standard
Tabbed By : Aaron Kunde

( ) = Harmonics
. = Palm Muted
/ = Pick slide

Intro
|-------------------------------------------------------------------|
|-------------------------------------------------------------------|
|-------------------------------------------------------------------|
|---------------------------------------///////////////////////////-|
|-(4)-----------------------------------///////////////////////////-|
|---------------------------------------///////////////////////////-|

Verse
|-------------------------------------------------------------------------------------|x2
|-------------------------------------------------------------------------------------|
|-66-66666666666666-44-444444-1111-111111111111-66-66666666666666-44-444444-----------|
|-66-66666666666666-44-444444-1111-111111111111-66-66666666666666-44-444444-44-444444-|
|-44-44444444444444-22-222222-9-9--9-9-9-9-9-9--44-44444444444444-22-222222-44-444444-|
|---------------------------------------------------------------------------22-222222-|

Chorus
|-------------------------------------------------------------------------------|
|-------------------------------------------------------------------------------|
|-----------99-999999------------------------------99-999999--------------------|
|-77-777777-99-999999-1111--111111111111-77-777777-99-999999-1111--111111111111-|
|-77-777777-77-777777-1111--111111111111-77-777777-77-777777-1111--111111111111-|
|-55-555555-----------9-9---9-9-9-9-9-9--55-555555-----------9-9---9-9-9-9-9-9--|

--------------------------------------------------------------------------------|-------------|
--------------------------------------------------------------------------------|-------------|
----------9-99999---------11111111111111-----------99-999999--------------------|-------------|
--7-77777-9-99999-9-99999-11111111111111-77-777777-99-999999-1111--111111111111-|-///////////-|
--7-77777-7-77777-9-99999-9-9-9-9-9-9-9--77-777777-77-777777-1111--111111111111-|-///////////-|
--5-55555---------7-77777----------------55-555555-----------9-9---9-9-9-9-9-9--|-///////////-|

Verse 2
|-----------------------------------------------------------------------------------------|
|-----------------------------------------------------------------------------------------|
|-66-66666666666666-44-444444-1111-111111111111-66-66666666666666-44-444444---------------|
|-66-66666666666666-44-444444-1111-111111111111-66-66666666666666-44-444444-(44)-(444444)-|
|-44-44444444444444-22-222222-9-9--9-9-9-9-9-9--44-44444444444444-22-222222-(44)-(444444)-|
|---------------------------------------------------------------------------(22)-(222222)-|

|-------------------------------------------------------------------------------------|
|-------------------------------------------------------------------------------------|
|-66-66666666666666-44-444444-1111-111111111111-66-66666666666666-44-444444-----------|
|-66-66666666666666-44-444444-1111-111111111111-66-66666666666666-44-444444-44-444444-|
|-44-44444444444444-22-222222-9-9--9-9-9-9-9-9--44-44444444444444-22-222222-44-444444-|
|---------------------------------------------------------------------------22-222222-|

Chorus
|-------------------------------------------------------------------------------|
|-------------------------------------------------------------------------------|
|-----------99-999999------------------------------99-999999--------------------|
|-77-777777-99-999999-1111--111111111111-77-777777-99-999999-1111--111111111111-|
|-77-777777-77-777777-1111--111111111111-77-777777-77-777777-1111--111111111111-|
|-55-555555-----------9-9---9-9-9-9-9-9--55-555555-----------9-9---9-9-9-9-9-9--|

---------------------------------------------------------------------------------|
---------------------------------------------------------------------------------|
----------9-99999---------11111111111111-----------99-999999------------------46-|
--7-77777-9-99999-9-99999-11111111111111-77-777777-99-999999-11---------------xx-|
--7-77777-7-77777-9-99999-9-9-9-9-9-9-9--77-777777-77-777777-11---------------24-|
--5-55555---------7-77777----------------55-555555-----------9-------------------|

Fill
|-------------------------------------|x2
|-------------------------------------|
|-6-6-6-6-9-9-9-9-4-4-4-4-11-11-11-11-|
|-6-6-6-6-9-9-9-9-4-4-4-4-11-11-11-11-|
|-4-4-4-4-7-7-7-7-2-2-2-2-9--9--9--9--|
|-------------------------------------|

|----------------------------------------------------------------------|
|----------------------------------------------------------------------|
|----------------------------------------------------------------------|
|-6666-9999-4444---6666-9999-4444---6666-9999-4444---6666-9999-4-------|
|-4444-7777-2222-4-4444-7777-2222-4-4444-7777-2222-4-4444-7777-2---4-6-|
|----------------2----------------2----------------2---------------2-4-|
  .... .... ....   .... .... ....

Chorus
|-------------------------------------------------------------------------------|
|-------------------------------------------------------------------------------|
|-----------99-999999------------------------------99-999999--------------------|
|-77-777777-99-999999-1111--111111111111-77-777777-99-999999-1111--111111111111-|
|-77-777777-77-777777-1111--111111111111-77-777777-77-777777-1111--111111111111-|
|-55-555555-----------9-9---9-9-9-9-9-9--55-555555-----------9-9---9-9-9-9-9-9--|

---------------------------------------------------------------------------------------------------------------|
---------------------------------------------------------------------------------------------------------------|
----------9-99999---------11111111111111-----------99-999999----------------------------------14-14--14-14-14--|
--7-77777-9-99999-9-99999-11111111111111-77-777777-99-999999-1111--11111111111111111111111111-16^16^-16^16^16^-|
--7-77777-7-77777-9-99999-9-9-9-9-9-9-9--77-777777-77-777777-1111--11111111111111111111111111------------------|
--5-55555---------7-77777----------------55-555555-----------9-9---9-9-9-9-9-9-9-9-9-9-9-9-9-------------------|
Добавлено: 15.06.2012
Другие материалы по этой песне:

Страница создана 22.03.2012
http://primanota.ru/rise-against/bricks-chords.htm
Привет, Гость.
Предлагаем пройти революционный курс по гитаре.
Подарок от PrimaNota.Ru, забирай!