PrimaNota.ru - самый крупный в мире бесплатный архив песенных текстов, аккордов, табулатур и нот


Rise Against - 1000 Good Intentions - текст песни, таба, бас-таба, видео

Регистрация Запомнить меня
Войти через:  Facebook Google Twitter Vk Yandex Mail.ru

Rise Against - 1000 Good Intentions - текст песни, таба, бас-таба, видео

Печатать
Просмотров: 181
1000 good intentions - rise against

Tabbed by: kevin cravillon
Email:kefke_craf911@hotmail.com

sounds pretty good to me, but corrections are always welcome.

Tuning: standard

intro  ( palmmute every first two powerchords)(git II : lots of feedback)
e|-------------------------------------------------------------------------|
B|-------------------------------------------------------------------------|
G|-999-999-99--------999-999-99--------999-999-99--------------------------|
D|-999-999-99--------999-999-99--------999-999-99--------------------------|
A|-777-777-77-997766-777-777-77-667799-777-777-77-9977669999999966666666---|
E|-------------------------------------------------------------------------|

e|-----------------------------------------------------------------------------|
B|-----------------------------------------------------------------------------|
G|-999-999-99--------999-999-99--------999-999-99------------------------------|
D|-999-999-99--------999-999-99--------999-999-99------------------------------|
A|-777-777-77-997766-777-777-77-667799-777-777-77-997766999999991010101010101010|
E|-----------------------------------------------------------------------------|

chorus
e|-------------------------------------------------------------------------|
B|-------------------------------------------------------------------------|
G|-------------9-----------------------------------------------------------|
D|-10-----7----9-x16--all this x3 then -9-7-6-7-7-7-7-7-7-6-7--------------|
A|-10-x8--7-x8-7-----------------------------------------------------------|
E|--8-----5----------------------------------------------------------------|

verse

chorus

bridge I
git I
e|-------------------------------------------------------------------------|
B|-------------------------------------------------------------------------|
G|-99999-------------------------------------------------------------------|
D|-99999------------------------------------------------x4-----------------|
A|-77777-------------------------------------------------------------------|
E|-____--------------------------------------------------------------------|
   p.m.
git II
e|-------------------------------------------------------------------------|
B|-------------------------------------------------------------------------|
G|-------------------------------------------------------------------------|
D|-----9999--------------------9999101010109999----------x4----------------|
A|---------10101010999910101010--------------------------------------------|
E|-------------------------------------------------------------------------|

bridge II (just play the notes lots of times)
e|-------------------------------------------------------------------------|
B|-------------------------------------------------------------------------|
G|-------------------------------------------------------------------------|
D|------------999999...-9----------------------------------------------------|
A|--7777777... -777777...-7--------pickslide-----------------------------------|
E|-------------------------------------------------------------------------|

chorus

===============================================================================
| /  slide up
| \  slide down
| h  hammer-on
| p  pull-off
| ~  vibrato
| +  harmonic
| x  Mute note
============================================================================
Добавлено: 10.06.2013
Другие материалы по этой песне:

Страница создана 28.04.2012
http://primanota.ru/rise-against/1000-good-intentions-chords.htm
Привет, Гость.
Предлагаем пройти революционный курс по гитаре.
Подарок от PrimaNota.Ru, забирай!