PrimaNota.ru - самый крупный в мире бесплатный архив песенных текстов, аккордов, табулатур и нот


Risa Yoshiki - Destin Histoire - таба, видео

Регистрация Запомнить меня
Войти через:  Facebook Google Twitter Vk Yandex Mail.ru

Risa Yoshiki - Destin Histoire - таба, видео

Печатать
Просмотров: 232
Уроки эстрадного вокала в Санкт-Петербурге
-------------------------------------------------------------------------------------------
                                          Destin Histoire - yoshiki*lisa
-------------------------------------------------------------------------------------------
Tabbed by: Joseph Sullivan
E-mail: Sullinator@hotmail.co.uk

Tuning: Standard

e|--6-5-6-------------6-5-6-8---6-5-6---6-5-3---------------------------------------------|
B|6-------6---4-3-4-6-------------------------6-3-6-4-3-----------------------------------|
G|------------------------------------------------------5-2-3---2-3-5--3-5-7--8-7-8-10----|
D|----------------------------------------------------------------------------------------|
A|----------------------------------------------------------------------------------------|
E|----------------------------------------------------------------------------------------|

e|------------------------------------------------------------------13--11-10-------------|
B|-10-11-10-11-10-11-10--11----11----13-11---11----11----11----11-------------13-11-------|
G|-10-10-10-10-10-10-10--10-10----10------------10----10----10----------------------------|
D|----------------------------------------------------------------------------------------|
A|----------------------------------------------------------------------------------------|
E|----------------------------------------------------------------------------------------|

e|----------------------------------------------------------------------------------------|
B|--11--11-11-10-11---13--11-11-11-13-11--------------------------------------------------|
G|--8---8--8--8--8----10--10-10-10-10-10--------------------------------------------------|
D|-----------------------------------------10--10--8-7-8-/10-/12-/13-/15-15~--------------|
A|----------------------------------------------------------------------------------------|
E|----------------------------------------------------------------------------------------|

e|-------15-------15----------------------------------------------------------------------|
B|-13^15----13^15----15v13-11-11---13-11-13-11-------13-11-13-11--------------------------|
G|---------------------------------------------12-10-------------12-10-12-10--------------|
D|---------------------------------------------------------------------------10^12v10-8-8-|
A|----------------------------------------------------------------------------------------|
E|----------------------------------------------------------------------------------------|

e|-------------------------------------------------------------------10-11-13~~~----------|
B|-----------11---------------------------11~~11~-----------10-11-13----------------------|
G|-----10-12----12-10----------------------------12-10-10---------------------------------|
D|-/12----------------12-10^12v10-8-/12---------------------------------------------------|
A|----------------------------------------------------------------------------------------|
E|----------------------------------------------------------------------------------------|

************************************

| /   slide up
| ~   hold w/ vibrato
| ^   Bend
| v   Bend release

************************************

My first tab. Couldn't find one, so I made one to the best of my ability and felt 
I might as well upload it.
(This song is also the opening theme of the anime, Gosick. That's where I first heard it.)
Добавлено: 01.07.2013
Другие материалы по этой песне:
  • Аккорды и текст

Страница создана 01.07.2013
http://primanota.ru/risa-yoshiki/destin-histoire-chords.htm
Привет, Гость.
Предлагаем пройти революционный курс по гитаре.
Подарок от PrimaNota.Ru, забирай!