PrimaNota.ru - самый крупный в мире бесплатный архив песенных текстов, аккордов, табулатур и нот


Risa Taneda - Wareta Ringo - таба, видео

Регистрация Запомнить меня
Войти через:  Facebook Google Twitter Vk Yandex Mail.ru

Risa Taneda - Wareta Ringo - таба, видео

Печатать
Просмотров: 159
Уроки эстрадного вокала в Санкт-Петербурге
-------------------------------------------------------------------------------
                             Wareta Ringo - Risa Taneda
-------------------------------------------------------------------------------
Tabbed by: Claine-senpai
E-mail:

Tuning: standart
                             Both guitars are acoustic!
Guitar 1:
e|----3-3-3--3--3-------------2--------0--------------0--|
B|----3-3-3--3----3-------3--------3-3---3----------3----|
G|----x-x-x--0------0-------2------2-2-----2------0------|
D|----2-2-2--2----------0--------------------------------| (6x)
A|---------------------------------2-2----------3--------|
E|-------------------------------------------------------|
                   /\
Guitar 2 (After 2x ||):
e|----------5-----------------2----2-2----3-----------0--|
B|----8-8-----------------3--------3-3----3---------3----|
G|--------------------------2------2-2----2-------0------|
D|---------------------0---------------------------------| (1x)
A|----------------------------------------------3--------|
E|----0-0------------------------------------------------|

e|----------5-7---------------2----2-2----3-----------0--|
B|----8-8-----------------3--------3-3----3---------3----|
G|--------------------------2------2-2----2-------0------|
D|---------------------0---------------------------------| (1x)
A|----------------------------------------------3--------|
E|----0-0------------------------------------------------|

e|----------5-----------------2----2-2----3-----------0--|
B|----8-8-----------------3--------3-3----3---------3----|
G|--------------------------2------2-2----2-------0------|
D|---------------------0---------------------------------| (1x)
A|----------------------------------------------3--------|
E|----0-0------------------------------------------------|

e|----------5-7---------------2----2-2----3-----------0--|
B|----8-8-----------------3--------3-3----3---------3----|
G|--------------------------2------2-2----2-------0------|
D|---------------------0---------------------------------| (1x)
A|----------------------------------------------3--------|
E|----0-0------------------------------------------------|
Guitar 1:
e|--------------------------------------0~----------0-----|
B|----0~---------0~------------0~-------0~--0~------0-----|
G|--------0-2--------0-2-----------0-2----------0-2-------|
D|------------2----------2--------------------------------|
A|----0~---------0~------------3~-----------3~------------|
E|--------------------------------------------------------|

e|---------------------------------------------------------------|
B|----0~----------0~------------1~~~~~------1--------------------|
G|--------0-2---------0-2-------0~~~~~------0-----4p2p0----------|
D|------------2-----------2-----3~~~~~------3----------4p2p0-----|
A|----0~----------0~------------------------0---------------3p2--|
E|---------------------------------------------------------------|
Guitar 1:
e|------------------0------------------------------------0--------------------|
B|----0------3h0----0----------------------0-----3h0-----0---0----------------|
G|------2-2-------0-0-------------0---2------2-2---------0-----2---0---2------|
D|------2-2-------2-------2---4--------------2-2-------2-2-----2---2---2------|(4x)
A|----3---------3-------3---3---3---3---3-------------------------------------|
E|-----------------------------------------0---------0-------0---0---0---0----|

e|---------------------------------------------------0~-----|
B|----0------------------------2~~-------------------3~-----|
G|------2~~--0~----2~------0~--0~~----------0-0------0~-----|
D|------2~~------2~--2~--------2~~--2p0h2-------2~~--2~-----|
A|----0--------0~-------0~-----0~~----------3-3-3~~--3~-----|
E|----------------------------------------------------------|


Guitar 1:
e|----3-3-3--3--3-------------2--------0--------------0--|
B|----3-3-3--3----3-------3--------3-3---3----------3----|
G|----x-x-x--0------0-------2------2-2-----2------0------|
D|----2-2-2--2----------0--------------------------------| ... and so on ...
A|---------------------------------2-2----------3--------|
E|-------------------------------------------------------|

************************************

| /   slide up
| \   slide down
| h   hammer-on
| p   pull-off
| ~   vibrato
| +   harmonic
| x   Mute note
| b   Bend
| pb  Pre-bend
| br  Bend release
| pbr Pre-bend release
| brb Bend release bend

************************************
Добавлено: 17.06.2016
Другие материалы по этой песне:
  • Аккорды и текст

Страница создана 17.06.2016
http://primanota.ru/risa-taneda/wareta-ringo-chords.htm
Привет, Гость.
Предлагаем пройти революционный курс по гитаре.
Подарок от PrimaNota.Ru, забирай!