PrimaNota.ru - самый крупный в мире бесплатный архив песенных текстов, аккордов, табулатур и нот


Ripsipiirakka - Minna Lissu - таба, видео

Регистрация Запомнить меня
Войти через:  Facebook Google Twitter Vk Yandex Mail.ru

Ripsipiirakka - Minna Lissu - таба, видео

Печатать
Просмотров: 92
Уроки эстрадного вокала в Санкт-Петербурге
----------------------------------------------------------------------------
             Ripsipiirakka-Minna & Lissu (meille vai teille albumi)
----------------------------------------------------------------------------
Tabbed by: Camillamazilla
Tuning: eBGDAE
Kakkoskitaran soinnut:  A  F#m Bm(Hm) E
                      e|0| |2| | 2 | |0|
                      B|2| |2| | 3 | |0|
                      G|2| |2| | 4 | |1|
                      D|2| |4| | 4 | |2|
                      A|0| |4| | 2 | |2|
                      E|-| |2| | - | |0|
|
Intro:
   A    F#m Bm E     A   F#m Bm  E
e|---------------------------------4-|     Soinnut mukaan tokalla kerralla
B|---5-----------------5------3---3--|
G|--6---6---4----4----6---6-4---4----|
D|-7---4--4-----6-6--7---4-----------|  2x
A|------------7----------------------| 
E|-----------------------------------|   
    A  F#m Bm  E      A  F#m Bm
e|-----------------------------------|
B|---5-----------------5-----3-------|
G|--6---6---4----4----6---6--4-------|
D|-7---4--4-----6-6--7---4---4-------|    1x
A|------------7----------------------|
E|-----------------------------------|

Verse:
   A   F#m Bm  E     A  F#m Bm  E
e|---------------------------------4-|
B|---5-----------------5------3---3--|
G|--6---6---4----4----6---6-4---4----|
D|-7---4--4-----6-6--7---4-----------|   
A|------------7----------------------| 
E|-----------------------------------|   
    A  F#m E  Bm     A   F#m Bm
e|-----------------------------------|
B|---5-----------------5-----3-------|
G|--6---6---4----4----6---6--4-------|
D|-7---4--4-----6-6--7---4---4-------|    
A|------------7----------------------|
E|-----------------------------------|
   A  F#m Bm  E      A  F#m Bm  E
e|---------------------------------4-|
B|---5-----------------5------3---3--|
G|--6---6---4----4----6---6-4---4----|
D|-7---4--4-----6-6--7---4-----------|   
A|------------7----------------------| 
E|-----------------------------------| 
   A  F#m Bm  E       A   F#m Bm
e|-----------------------------------|
B|---5-----------------5---3--3----- |
G|--6---6---4----4----6---4-4-4------|
D|-7---4--4-----6-6--7---4----4------|    
A|------------7----------------------|
E|-----------------------------------| 

Kertsi:

e|-----------------------------------|
B|-----------------------------------|
G|------------------4-4-4-44---------|
D|7-7-7-77-4-4-4-44-4-4-4-44-2-2-2-22| 3x 
A|7-7-7-77-4-4-4-44-2-2-2-22-2-2-2-22|
E|5-5-5-55-2-2-2-22----------0-0-0-00|

e|-----------------------------------|
B|------------------3-3-3-3-3-3-3-3--|
G|------------------4-4-4-4-4-4-4-4--|
D|7-7-7-77-4-4-4-44-4-4-4-4-4-4-4-4--| 1x
A|7-7-7-77-4-4-4-44-2-2-2-2-2-2-2-2--|
E|5-5-5-55-2-2-2-22------------------|

e|-----------------------------------|
B|-----------------------------------|
G|------------------4-4-4-44---------|
D|7-7-7-77-4-4-4-44-4-4-4-44-2-2-2-22| 3x 
A|7-7-7-77-4-4-4-44-2-2-2-22-2-2-2-22|
E|5-5-5-55-2-2-2-22----------0-0-0-00|

e|----------------------|
B|------------------3---|
G|------------------4---|
D|7-7-7-77-4-4-4-44-4---| 1x
A|7-7-7-77-4-4-4-44-2---|
E|5-5-5-55-2-2-2-22-----|

Toisessa säkeistössä samoja riffejä kuin ekassa, kuuntele nauhalta. Tasutalle
tulee lisäksi kolmas kitara:

e|--5--5--7--7--5--5--7--7--5--5--7--7--5--5--7-|
B|--5--5--7--7--5--5--7--7--5--5--7--7--5--5--7-|
G|--6--6--7--7--6--6--7--7--6--6--7--7--6--6--7-|
D|--7--7--9--9--7--7--9--9--7--7--9--9--7--7--9-|
A|----------------------------------------------|
E|----------------------------------------------|

Kertsi:

e|-----------------------------------|
B|-----------------------------------|
G|------------------4-4-4-44---------|
D|7-7-7-77-4-4-4-44-4-4-4-44-2-2-2-22| 3x 
A|7-7-7-77-4-4-4-44-2-2-2-22-2-2-2-22|
E|5-5-5-55-2-2-2-22----------0-0-0-00|

e|-----------------------------------|
B|------------------3-3-3-3-3-3-3-3--|
G|------------------4-4-4-4-4-4-4-4--|
D|7-7-7-77-4-4-4-44-4-4-4-4-4-4-4-4--| 1x
A|7-7-7-77-4-4-4-44-2-2-2-2-2-2-2-2--|
E|5-5-5-55-2-2-2-22------------------|

e|-----------------------------------|
B|-----------------------------------|
G|------------------4-4-4-44---------|
D|7-7-7-77-4-4-4-44-4-4-4-44-2-2-2-22| 3x 
A|7-7-7-77-4-4-4-44-2-2-2-22-2-2-2-22|
E|5-5-5-55-2-2-2-22----------0-0-0-00|

e|------------------------|
B|------------------3-3-3-|
G|------------------4-4-4-|
D|7-7-7-77-4-4-4-44-4-4-4-| 1x
A|7-7-7-77-4-4-4-44-2-2-2-|
E|5-5-5-55-2-2-2-22-------|


Soolo:

e|----------------------------------------------------------------12-14----|
B|10~--12--10------------------------------------10~-12--10--12-14---------|
G|------------13-11--9-11--13--11-----9h11~--9-11--------------------------|
D|--------------------------------9h11-------------------------------------|
A|-------------------------------------------------------------------------|
E|-------------------------------------------------------------------------|

e|14br-12---------------------------------|
B|---------14--12h14p12h14p12h14p12h14p12-|
G|----------------------------------------|
D|----------------------------------------|
A|----------------------------------------|
E|----------------------------------------|
  
Soolon taustalla:
 A  F#m Bm  E      A  F#m Bm  E
e|---------------------------------4-|
B|---5-----------------5------3---3--|
G|--6---6---4----4----6---6-4---4----|
D|-7---4--4-----6-6--7---4-----------|   
A|------------7----------------------| 
E|-----------------------------------| 
   A  F#m Bm  E       A   F#m Bm
e|-----------------------------------|
B|---5-----------------5---3--3----- |
G|--6---6---4----4----6---4-4-4------|
D|-7---4--4-----6-6--7---4----4------|    
A|------------7----------------------|
E|-----------------------------------| 

Kertsi:

Kertsi:

e|-----------------------------------|
B|-----------------------------------|
G|------------------4-4-4-44---------|
D|7-7-7-77-4-4-4-44-4-4-4-44-2-2-2-22| 3x 
A|7-7-7-77-4-4-4-44-2-2-2-22-2-2-2-22|
E|5-5-5-55-2-2-2-22----------0-0-0-00|

e|-----------------------------------|
B|------------------3-3-3-3-3-3-3-3--|
G|------------------4-4-4-4-4-4-4-4--|
D|7-7-7-77-4-4-4-44-4-4-4-4-4-4-4-4--| 1x
A|7-7-7-77-4-4-4-44-2-2-2-2-2-2-2-2--|
E|5-5-5-55-2-2-2-22------------------|

e|-----------------------------------|
B|-----------------------------------|
G|------------------4-4-4-44---------|
D|7-7-7-77-4-4-4-44-4-4-4-44-2-2-2-22| 3x 
A|7-7-7-77-4-4-4-44-2-2-2-22-2-2-2-22|
E|5-5-5-55-2-2-2-22----------0-0-0-00|

e|----------------------|
B|------------------3---|
G|------------------4---|
D|7-7-7-77-4-4-4-44-4---| 1x
A|7-7-7-77-4-4-4-44-2---|
E|5-5-5-55-2-2-2-22-----|

Outro:
e|---------------------------------4-|     
B|---5-----------------5------3---3--|
G|--6---6---4----4----6---6-4---4----|
D|-7---4--4-----6-6--7---4-----------|  2x
A|------------7----------------------| 
E|-----------------------------------|   
    A  F#m Bm  E      A  F#m Bm
e|-----------------------------------|
B|---5-----------------5-----3-------|
G|--6---6---4----4----6---6--4-------|
D|-7---4--4-----6-6--7---4-4-4-------|    1x
A|------------7----------------------|
E|-----------------------------------|

| /  slide up
| \  slide down
| h  hammer-on
| p  pull-off
| ~  vibrato
| +  harmonic
| x  Mute note

Добавлено: 19.07.2012
Другие материалы по этой песне:
  • Аккорды и текст

Страница создана 19.07.2012
http://primanota.ru/ripsipiirakka/minna-lissu-chords.htm
Привет, Гость.
Предлагаем пройти революционный курс по гитаре.
Подарок от PrimaNota.Ru, забирай!