PrimaNota.ru - самый крупный в мире бесплатный архив песенных текстов, аккордов, табулатур и нот


Rippingtons - Gypsy Eyes - таба, видео

Регистрация Запомнить меня
Войти через:  Facebook Google Twitter Vk Yandex Mail.ru

Rippingtons - Gypsy Eyes - таба, видео

Печатать
Просмотров: 119
-------------------------------------------------------------------------------
                             GYPSY EYES - The Rippingtons
-------------------------------------------------------------------------------
Tabbed by: Arseniy Banayev
Email: xboteb13@gmail.com

Tuning: Standard (EADGBe)

Listen to the song to get the rhythm and timings.

  intro
 
e|------------------|---------------------|--------------------|--------------2h4-|
B|------------------|---------------------|--------------------|------------------|
G|------------------|---------------------|--------------------|------------------|
D|------------------|---------------------|--------------------|------------------|
A|------------------|---------------------|--------------------|------------------|
E|------------------|---------------------|--------------------|------------------|

  1st verse
e|-5-----------2h4-|-5------------2h4-|-5------------2h4-|-5------------------2h4-|
B|---2-2-----------|---2-2------------|---2-3------------|----2-3/5-3-------------|
G|-----------------|------------------|------------------|------------------------|
D|-----------------|------------------|------------------|------------------------|
A|-----------------|------------------|------------------|------------------------|
E|-----------------|------------------|------------------|------------------------|

e|-5-----------2-5-|-4--2-0-----------------|-------------------|-------------2h4-|
B|---3-3-----------|---------0--2------2-0--|----0-/2-2---------|-----------------|
G|-----------------|------------------------|-2-----------------|-----------------|
D|-----------------|------------------------|-------------------|-----------------|
A|-----------------|------------------------|-------------------|-----------------|
E|-----------------|------------------------|-------------------|-----------------|

  2nd verse
e|-5---------2h4-|-5----------------2h4-|-5-----------2h4-|-5-----------------2h4-|
B|---2-2---------|---2-2h3p2-0-2--------|---2-3/5\3-------|----3-3h5p3-2-3--------|
G|---------------|----------------------|-----------------|-----------------------|
D|---------------|----------------------|-----------------|-----------------------|
A|---------------|----------------------|-----------------|-----------------------|
E|---------------|----------------------|-----------------|-----------------------|

e|-5-----------2-5-|-4--2-0-----------------|-------------------|------------2--4-|
B|---3-3-----------|---------0--2------2-0--|----0-/2-2---------|---------2-------|
G|-----------------|------------------------|-2-----------------|-----------------|
D|-----------------|------------------------|-------------------|-----------------|
A|-----------------|------------------------|-------------------|-----------------|
E|-----------------|------------------------|-------------------|-----------------|

  chorus
e|-5---5-------|---------5-|-4---2-0---------|------------0-|-2-2--2p0------------|
B|---------2-3-|-----------|-------------0-2-|------(2)-3---|----------3--2h3p2-0-|
G|-------------|-----------|-----------------|--------------|---------------------|
D|-------------|-----------|-----------------|--------------|---------------------|
A|-------------|-----------|-----------------|--------------|---------------------|
E|-------------|-----------|-----------------|--------------|---------------------|

e|--------/2-|-1--2-4--------|-------------2--4-|-5----5------9-10-|------------5-|
B|-----------|-----------2-3-|-2--------2-------|------------------|--------------|
G|-----------|---------------|------------------|------------------|--------------|
D|-----------|---------------|------------------|------------------|--------------|
A|-----------|---------------|------------------|------------------|--------------|
E|-----------|---------------|------------------|------------------|--------------|

e|-4---4-5--/7\-----|------------0-|-2-2--2p0--------|---------2-|-1---2-4--------|
B|----------------3-|-2----(2)-3---|-----------3-2-0-|-----------|------------2-3-|
G|------------------|--------------|-----------------|-----------|----------------|
D|------------------|--------------|-----------------|-----------|----------------|
A|------------------|--------------|-----------------|-----------|----------------|
E|------------------|--------------|-----------------|-----------|----------------|

               bridge
e|------------|----9--9--7-7-4--5---7/9-|-9---------|-0h2h4-5--4--5/7-5-4-5p4p2-5-|
B|-2----------|-------------------------|-----------|-----------------------------|
G|------------|-------------------------|-----------|-----------------------------|
D|------------|-------------------------|-----------|-----------------------------|
A|------------|-------------------------|-----------|-----------------------------|
E|------------|-------------------------|-----------|-----------------------------|

                        non-melody guitar stuff...
e|-4\------------------|--------------------|-----------------|---------------5h7-|
B|-----3--2------------|--------------------|-----------------|-------------------|
G|---------------------|--------------------|-----------------|-------------------|
D|---------------------|--------------------|-----------------|-------------------|
A|---------------------|--------------------|-----------------|-------------------|
E|---------------------|--------------------|-----------------|-------------------|

  verse 3 (raised)
e|-8---------5h7-|-8--------------5h7-|-8-----------5h7-|-8-------------------5h7-|
B|---5-5---------|---5-5h6p5-3-5------|---5-6h8p6-------|----6-6h8p6-5-6----------|
G|---------------|--------------------|-----------------|-------------------------|
D|---------------|--------------------|-----------------|-------------------------|
A|---------------|--------------------|-----------------|-------------------------|
E|---------------|--------------------|-----------------|-------------------------|

e|-8-----------5-8-|-7--5-3-----------------|-------------------|------------5--7-|
B|---6-6-----------|---------3--5------5-3--|----3-/5-5---------|---------5-------|
G|-----------------|------------------------|-5-----------------|-----------------|
D|-----------------|------------------------|-------------------|-----------------|
A|-----------------|------------------------|-------------------|-----------------|
E|-----------------|------------------------|-------------------|-----------------|

  chorus (raised)
e|-8---8---------|-----------8-|-6---5-3---------|------------3-|-5-5--5p3--------|
B|----------5--6-|-------------|-------------3-5-|------(5)-6---|----------6--5-3-|
G|---------------|-------------|-----------------|--------------|-----------------|
D|---------------|-------------|-----------------|--------------|-----------------|
A|---------------|-------------|-----------------|--------------|-----------------|
E|---------------|-------------|-----------------|--------------|-----------------|

                                           bridge (raised)
e|---------5-|-4-5-5/7------|-------------|-12-12-10-10-7--8--10/12-|-12----------|
B|-----------|----------5-6-|-5-----------|-------------------------|-------------|
G|-----------|--------------|-------------|-------------------------|-------------|
D|-----------|--------------|-------------|-------------------------|-------------|
A|-----------|--------------|-------------|-------------------------|-------------|
E|-----------|--------------|-------------|-------------------------|-------------|

  non-melody guitar stuff...                4th verse
e|-------------|-------------|---------2h4-|-5---------2h4-|-5----------------2h4-|
B|-------------|-------------|-------------|---2-2---------|---2-2h3p2-0-2--------|
G|-------------|-------------|-------------|---------------|----------------------|
D|-------------|-------------|-------------|---------------|----------------------|
A|-------------|-------------|-------------|---------------|----------------------|
E|-------------|-------------|-------------|---------------|----------------------|

e|-5-----------2h4-|-5-----------------2h4-|-5----------2-5-|-4--2-0--------------|
B|---2-3/5\3-------|----3-3h5p3-2-3--------|---3-3----------|---------0-2----2-0--|
G|-----------------|-----------------------|----------------|---------------------|
D|-----------------|-----------------------|----------------|---------------------|
A|-----------------|-----------------------|----------------|---------------------|
E|-----------------|-----------------------|----------------|---------------------|

                                       chorus
e|-------------------|-----------2--4-|-5---5-------|---------5-|-4---2-0---------|
B|----0-/2-2---------|--------2-------|---------2-3-|-----------|-------------0-2-|
G|-2-----------------|----------------|-------------|-----------|-----------------|
D|-------------------|----------------|-------------|-----------|-----------------|
A|-------------------|----------------|-------------|-----------|-----------------|
E|-------------------|----------------|-------------|-----------|-----------------|

e|------------0-|-2-2--2p0---------|---------2-|-1--2-4--------|-------------2--4-|
B|------(2)-3---|------------3-2-0-|-----------|-----------2-3-|-2--------2-------|
G|--------------|------------------|-----------|---------------|------------------|
D|--------------|------------------|-----------|---------------|------------------|
A|--------------|------------------|-----------|---------------|------------------|
E|--------------|------------------|-----------|---------------|------------------|

e|-5----5--------9-10-|-------------4/5-|-4---4-5---7--------|------------------0-|
B|--------------------|-----------------|------------------3-|-2------------2-3---|
G|--------------------|-----------------|--------------------|--------------------|
D|--------------------|-----------------|--------------------|--------------------|
A|--------------------|-----------------|--------------------|--------------------|
E|--------------------|-----------------|--------------------|--------------------|

e|-2-2----2p0---------|-------------2---|-1----2-4--------------|-----------------|
B|--------------3-2-0-|-----------------|-------------------2-3-|-2---------------|
G|--------------------|-----------------|-----------------------|-----------------|
D|--------------------|-----------------|-----------------------|-----------------|
A|--------------------|-----------------|-----------------------|-----------------|
E|--------------------|-----------------|-----------------------|-----------------|

  outro (repeat until fade)
e|-2---4-4--5--5----7h9-|-10--10-10--9--7--------|-4h5p4-2-4--5--5/7---------0--4-|
B|----------------------|------------------------|---------------------3----------|
G|----------------------|------------------------|--------------------------------|
D|----------------------|------------------------|--------------------------------|
A|----------------------|------------------------|--------------------------------|
E|----------------------|------------------------|--------------------------------|

e|-10--9-9--7--9--7--5--4-----|-2---4-4--5--5-----------|-------------9---7---7-7-|
B|----------------------------|-----------------------2-|-3h5p3-2-3---------------|
G|----------------------------|-------------------------|-------------------------|
D|----------------------------|-------------------------|-------------------------|
A|----------------------------|-------------------------|-------------------------|
E|----------------------------|-------------------------|-------------------------|

e|-4h5---5---4---4----4--4/7-|---5--------------------|-2---4--4---5--5-------7h9-|
B|---------------------------|------------------------|---------------------------|
G|---------------------------|------------------------|---------------------------|
D|---------------------------|------------------------|---------------------------|
A|---------------------------|------------------------|---------------------------|
E|---------------------------|------------------------|---------------------------|

e|-10--10-10--9--7-------|-4h5p4-2-4--5--5/7--------0-4-|-10--9-9--7--9--7--5--4--|
B|-----------------------|--------------------3---------|-------------------------|
G|-----------------------|------------------------------|-------------------------|
D|-----------------------|------------------------------|-------------------------|
A|-----------------------|------------------------------|-------------------------|
E|-----------------------|------------------------------|-------------------------|

e|-2---4-4--5--5-----------|-------------9---7---7-7-|-4h5---5--4--4--2--2---1----|
B|-----------------------2-|-3h5p3-2-3---------------|----------------------------|
G|-------------------------|-------------------------|----------------------------|
D|-------------------------|-------------------------|----------------------------|
A|-------------------------|-------------------------|----------------------------|
E|-------------------------|-------------------------|----------------------------|

e|-2/4----2----5----------|
B|------------------------|
G|------------------------|
D|------------------------|
A|------------------------|
E|------------------------|

************************************

| /   slide up
| \   slide down
| h   hammer-on
| p   pull-off

************************************
Добавлено: 09.07.2013
Вам также может быть интересно:
Другие материалы по этой песне:
  • Аккорды и текст

Страница создана 09.07.2013
http://primanota.ru/rippingtons/gypsy-eyes-chords.htm
Привет, Гость.
Предлагаем пройти революционный курс по гитаре.
Подарок от PrimaNota.Ru, забирай!