PrimaNota.ru - самый крупный в мире бесплатный архив песенных текстов, аккордов, табулатур и нот


R.I.P. - Kaos - таба, видео

Регистрация Запомнить меня
Войти через:  Facebook Google Twitter Vk Yandex Mail.ru

R.I.P. - Kaos - таба, видео

Печатать
Просмотров: 122
kaos


R.I.P.


TRANSCRIBED BY RUDY GUZMAN


guzman_84@hotmail.com




                                               
e:--------------------------------------------------|
B:--------------------------------------------------|
G:--------------------------------------------------|
D:-4-4-4-4-4-4-4-4-4-4-4-4-4-4-4-4-4-4-4-4-4--4-----|
A:-2-2-2-2-2-2-2-2-2-2-2-2-2-2-2-2-2-2-2-2-2--2-----|
E:--------------------------------------------------|

e:-----------------------------------|
B:-----------------------------------|
G:-----------------------------------|
D:-4--4-4--4-4--4--4--7--9-9--7--9-9-|
A:-2--2-2--2-2--2--2--5--7-7--5--7-7-|
E:-----------------------------------|

  quiero ser el peligro mundial..
e:-----------------------------------|
B:-----------------------------------|
G:-----------------------------------|
D:-4--4-4--4-4--4--4--7--9-9--7--9-9-|
A:-2--2-2--2-2--2--2--5--7-7--5--7-7-|
E:-----------------------------------|

   kaos!!!  kaos!!!
e:------------------------------------------------|
B:------------------------------------------------|
G:------------------------------------------------|
D:-5--5-5--5-5--5--5--8-8--5--5-5--5-5--5--5--8-8-|
A:-3--3-3--3-3--3--3--6-6--3--3-3--3-3--3--3--6-6-|
E:------------------------------------------------|

e:--------------------------------------------------|
B:--------------------------------------------------|
G:--------------------------------------------------|
D:-5--5-5--5-5--5--5--8-8--10-10-10-10-10-10-10-10--|
A:-3--3-3--3-3--3--3--6-6--8--8--8--8--8--8--8--8---|
E:--------------------------------------------------|

e:----------------------|
B:----------------------|
G:----------------------|
D:-10--10--10--10-10-10-|
A:-8---8---8---8--8--8--|
E:----------------------|

e:-----------------------------------|
B:-----------------------------------|
G:-----------------------------------|
D:-4--4-4--4-4--4--4--7--9-9--7--9-9-|
A:-2--2-2--2-2--2--2--5--7-7--5--7-7-|
E:-----------------------------------|

  nadie los podra salvar...
e:-----------------------------------|
B:-----------------------------------|
G:-----------------------------------|
D:-4--4-4--4-4--4--4--7--9-9--7--9-9-|
A:-2--2-2--2-2--2--2--5--7-7--5--7-7-|
E:-----------------------------------|

   kaos!!!  kaos!!!
e:------------------------------------------------|
B:------------------------------------------------|
G:------------------------------------------------|
D:-5--5-5--5-5--5--5--8-8--5--5-5--5-5--5--5--8-8-|
A:-3--3-3--3-3--3--3--6-6--3--3-3--3-3--3--3--6-6-|
E:------------------------------------------------|

e:--------------------------------------------------|
B:--------------------------------------------------|
G:--------------------------------------------------|
D:-5--5-5--5-5--5--5--8-8--10-10-10-10-10-10-10-10--|
A:-3--3-3--3-3--3--3--6-6--8--8--8--8--8--8--8--8---|
E:--------------------------------------------------|

e:----------------------|
B:----------------------|
G:----------------------|
D:-10--10--10--10-10-10-|
A:-8---8---8---8--8--8--|
E:----------------------|
                                   x4
e:-----------------------------------|
B:-----------------------------------|
G:-----------------------------------|
D:-4--4-4--4-4--4--4--7--9-9--7--9-9-|
A:-2--2-2--2-2--2--2--5--7-7--5--7-7-|
E:-----------------------------------|


e:-----------------------------------|
B:-----------------------------------|
G:-----------------------------------|
D:-7--9-9--7--9-9--4-----------------|
A:-5--7-7--5--7-7--2-----------------|
E:-----------------------------------|



http://www.lastfm.es/music/R.I.P.           website

http://es.wikipedia.org/wiki/RIP_(banda)    bio

www.youtube.com/watch?v=1jaL9fpS3dE         video



hillo son mex

20/01/13
Добавлено: 24.11.2013
Другие материалы по этой песне:
  • Аккорды и текст

Страница создана 24.11.2013
http://primanota.ru/rip/kaos-chords.htm
Привет, Гость.
Предлагаем пройти революционный курс по гитаре.
Подарок от PrimaNota.Ru, забирай!