PrimaNota.ru - самый крупный в мире бесплатный архив песенных текстов, аккордов, табулатур и нот


Riot - Tahm Kench - таба, видео

Регистрация Запомнить меня
Войти через:  Facebook Google Twitter Vk Yandex Mail.ru

Riot - Tahm Kench - таба, видео

Печатать
Просмотров: 94
-------------------------------------------------------------------------------
                             Tahm Kench - Riot
-------------------------------------------------------------------------------
Tabbed by:Chris
E-mail:bogdancrv@yahoo.com

Tuning:EADGBe (capo on 5th fret)

This is my first tab and therefore is not exactly like the original... at least it will serve to give you an idea
of how you need to play this song.




Intro

e|-----------------------------------------------------------------------------------------------------|
B|--------1------1--1---1-1-1-1---1-1-1-----------1-------1--1---1----1---1--1--1--1-------------------|
G|--------2------2--2---2-2-2-2---2-2-2-----------2-------2--2---2----2---2--2--2--2-------------------|
D|--------2------2--2---2-2-2-2---2-2-2-----------2-------2--2---2----2---2--2--2--2-------------------|
A|----3---0------0--0---0-0-0-0---0-0-0-------0-3-0-------0--0---0----0---0--0--0--0---3--3------------|
E|----------------------------------------0h3----------------------------------------------------------|
      b                                         b                                      b  b
e|-----------------------------------------------------------------------------------------------------|
B|----1------1--1---1---1---1------------1--1--------1---1-1-1-1---1--1----1---1-1---------------------|
G|----2------2--2---2---2---2------------2--2--------2---2-2-2-2---2--2----2---2-2---------------------|
D|----2------2--2---2---2---2------------2--2--------2---2-2-2-2---2--2----2---2-2---------------------|
A|----0------0--0---0---0---0--------0-3-0--0--3--3--0---0-0-0-0---0--0----0---0-0---------------------|
E|------------------------------0h3--------------------------------------------------------------------|
  Main part                            b       b  
e|----0------0-----------0---0-0-0-0----0----0--2----2----2--0----0-0-0--------------------------------|
B|----1------1-----------1---1-1-1-1----1----1--2----2----2--1----1-1-1--------------------------------|
G|----2------0-----------2---2-2-2-2----2----2--0----0----0--2----2-2-2--------------------------------|
D|--------2------2---0---2---2-2-2-2----0----0--0----0----0--2----2-2-2--------------------------------|
A|---------------------2-0---0-0-0-0----2----2--1----1----1--0----0-0-0--------0-3-0-------------------|
E|--------------------------------------2----2--2----2----2---------------0h3--------------------------|
                                                                                 b
e|----0------0-----------0---0-0-0-0----0----0--2----2------0----0-0-0--------------------------------|
B|----1------1------0----1---1-1-1-1----1----1--2----2------1----1-1-1--------------------------------|
G|----2------0-----------2---2-2-2-2----2----2--0----0------2----2-2-2--------------------------------|
D|--------2------2-------2---2-2-2-2----0----0--0----0------2----2-2-2--------------------------------|
A|-----------------------0---0-0-0-0----2----2--1----1------0----0-0-0--------0-3-0-------------------|
E|--------------------------------------2----2--2----2------------------------------------------------|
 
************************************

| /   slide up
| \   slide down
| h   hammer-on
| p   pull-off
| ~   vibrato
| +   harmonic
| x   Mute note
| b   Bend
| pb  Pre-bend
| br  Bend release
| pbr Pre-bend release
| brb Bend release bend

************************************
Добавлено: 25.10.2015
Вам также может быть интересно:
Другие материалы по этой песне:
  • Аккорды и текст

Страница создана 25.10.2015
http://primanota.ru/riot/tahm-kench-chords.htm
Привет, Гость.
Предлагаем пройти революционный курс по гитаре.
Подарок от PrimaNota.Ru, забирай!