PrimaNota.ru - самый крупный в мире бесплатный архив песенных текстов, аккордов, табулатур и нот


Riot - Narita - таба, видео

Регистрация Запомнить меня
Войти через:  Facebook Google Twitter Vk Yandex Mail.ru

Riot - Narita - таба, видео

Печатать
Просмотров: 97
Уроки эстрадного вокала в Санкт-Петербурге
-------------------------------------------------------------------------------
                             NARITA - Riot
-------------------------------------------------------------------------------
Tabbed by: Neil Sackman


Tuning: Standard
Riff #1

e|---------------------------------------------------------------------------|
B|---------------------------------------------------------------------------|
G|---------------------------------------------------------------------------|
D|---7---5---4p0-----------7---5---4p0---------------------------------------|
A|-0---0---0-----0--5-3--0---0---0-----0-7-5-3-------------------------------|
E|---------------------------------------------------------------------------|

Riff #2

e|-12--10-8-10--8-7-8--7-5-7--5-3-5--12--10-8-10--8-7-8--7-5-7--5-3-5--------|
B|---------------------------------------------------------------------------|
G|---------------------------------------------------------------------------|
D|---------------------------------------------------------------------------|
A|---------------------------------------------------------------------------|
E|---------------------------------------------------------------------------|

e|-17--15-13-15--13-12-13--12-10-12--10-8-10---------------------------------|
B|---------------------------------------------------------------------------|
G|---------------------------------------------------------------------------|
D|---------------------------------------------------------------------------|
A|---------------------------------------------------------------------------|
E|---------------------------------------------------------------------------|

e|-12--10-8-10--8-7-8--7-5-7--5-3-5------------------------------------------|
B|---------------------------------------------------------------------------|
G|---------------------------------------------------------------------------|
D|---------------------------------------------------------------------------|
A|---------------------------------------------------------------------------|
E|---------------------------------------------------------------------------|

Riff #3

e|---------------------------------------------------------------------------|
B|-5--5-6-8--6-5------5--5-6-8--6-5------------------------------------------|
G|---------------7-5----------------7-5---5-4--------------------------------|
D|--------------------------------------7------------------------------------|
A|---------------------------------------------------------------------------|
E|---------------------------------------------------------------------------|

e|---------------------------------------------------------------------------|
B|-5--5-6-8--6-5------5--5-6-8--6-5------------------------------------------|
G|---------------7-5----------------7-5---5-4--4h5p4-------------------------|
D|--------------------------------------7------------5/7--9-10-12------------|
A|---------------------------------------------------------------------------|
E|---------------------------------------------------------------------------|

Repeat riff #2
Riff #4

e|-----------------------------8-7-5------5----------------------------------|
B|-5--5-6-8--6-5------5--5-6-8-------8-6----8--------------------------------|
G|---------------7-5---------------------------------------------------------|
D|---------------------------------------------------------------------------|
A|---------------------------------------------------------------------------|
E|---------------------------------------------------------------------------|

e|-----------------------------8-7-5------5----5--7-8--8/10-------------------|
B|-5--5-6-8--6-5------5--5-6-8-------8-6----8--------------------------------|
G|---------------7-5---------------------------------------------------------|
D|---------------------------------------------------------------------------|
A|---------------------------------------------------------------------------|
E|---------------------------------------------------------------------------|

Repeat riff #1
Pre-solo
e|---------------------------------------------------------------------------|
B|---------------------------------------------------------------------------|
G|-------5-7-7b9br7b9--------------------------------------------------------|
D|-5h7------------------9--5-4-4h5p4-----------------------------------------|
A|-----------------------------------5/7-------------------------------------|
E|---------------------------------------------------------------------------|

The solo starts something like this. Not 100% accurate, but sounds alright. Mark Reale probably just improvised 
in A. The rhythm guitar just plays A and D chords.

e|----------------------------------------------------------------------------|
B|----------------------------------------------------------------------------|
G|----------------------------------------------------------------------------|
D|-----------------------------------------------------------------5h7p5---5-7|
A|-5b6-5-3------5-3--------5b6-5-3--------5b6-3---3-5b6-3---3--5/7-------7----|
E|---------5--3------5-3-5---------5-3h5--------5---------5-------------------|

e|---------------------------5-----5-----------------------------------------|
B|-----------------------------8p5---5-8-5-----------------------------------|
G|-5-7b9-5---5-7b9-5---5-7b9----------------7-5-7-5--7b9-7p5--5-----7b9-7p5--|
D|---------7---------7---------------------------------------7--7-5---------7|
A|---------------------------------------------------------------------------|
E|---------------------------------------------------------------------------|

Ending
e|---------------------------------------------------------------------------|
B|---------------------------------------------------------------------------|
G|-9--7--5--4--2----9--7--5--4--2----14--12--10--9--7----9--7--5--4--2-------|
D|-9--7--5--4--2----9--7--5--4--2----14--12--10--9--7----9--7--5--4--2-------|
A|-7--5--3--2--0----7--5--3--2--0----12--10--8---7--5----7--5--3--2--0-------|
E|---------------------------------------------------------------------------|

e|---------------------------------------------------------------------------|
B|---------------------------------------------------------------------------|
G|-------------------------------2-------------------------------------------|
D|-------------------------------2-------------------------------------------|
A|-7--5-3-5--3-2-3--2-0-2--0-----0-------------------------------------------|
E|---------------------------3-----------------------------------------------|





************************************

| /   slide up
| \   slide down
| h   hammer-on
| p   pull-off
| ~   vibrato
| +   harmonic
| x   Mute note
| b   Bend
| pb  Pre-bend
| br  Bend release
| pbr Pre-bend release
| brb Bend release bend

************************************
Добавлено: 16.06.2016
Вам также может быть интересно:
Другие материалы по этой песне:

Страница создана 25.10.2015
http://primanota.ru/riot/narita-chords.htm
Привет, Гость.
Предлагаем пройти революционный курс по гитаре.
Подарок от PrimaNota.Ru, забирай!